  0
SECTION
  2
HEADER
  9
$ACADVER
  1
AC1015
  9
$ACADMAINTVER
 70
    20
  9
$DWGCODEPAGE
  3
ANSI_1252
  9
$INSBASE
 10
0.0
 20
0.0
 30
0.0
  9
$EXTMIN
 10
165.4456680973691
 20
169.6196234017724
 30
0.0
  9
$EXTMAX
 10
168.011335766943
 20
170.0194969424274
 30
0.0
  9
$LIMMIN
 10
0.0
 20
0.0
  9
$LIMMAX
 10
420.0
 20
297.0
  9
$ORTHOMODE
 70
     1
  9
$REGENMODE
 70
     1
  9
$FILLMODE
 70
     1
  9
$QTEXTMODE
 70
     0
  9
$MIRRTEXT
 70
     1
  9
$LTSCALE
 40
1.0
  9
$ATTMODE
 70
     1
  9
$TEXTSIZE
 40
2.5
  9
$TRACEWID
 40
1.0
  9
$TEXTSTYLE
  7
SANINDUSA
  9
$CLAYER
  8
cotas
  9
$CELTYPE
  6
ByLayer
  9
$CECOLOR
 62
   256
  9
$CELTSCALE
 40
1.0
  9
$DISPSILH
 70
     0
  9
$DIMSCALE
 40
1.0
  9
$DIMASZ
 40
2.0
  9
$DIMEXO
 40
1.0
  9
$DIMDLI
 40
1.0
  9
$DIMRND
 40
0.0
  9
$DIMDLE
 40
0.0
  9
$DIMEXE
 40
1.0
  9
$DIMTP
 40
0.0
  9
$DIMTM
 40
0.0
  9
$DIMTXT
 40
2.0
  9
$DIMCEN
 40
0.0
  9
$DIMTSZ
 40
0.0
  9
$DIMTOL
 70
     0
  9
$DIMLIM
 70
     0
  9
$DIMTIH
 70
     0
  9
$DIMTOH
 70
     0
  9
$DIMSE1
 70
     0
  9
$DIMSE2
 70
     0
  9
$DIMTAD
 70
     1
  9
$DIMZIN
 70
     8
  9
$DIMBLK
  1

  9
$DIMASO
 70
     1
  9
$DIMSHO
 70
     1
  9
$DIMPOST
  1

  9
$DIMAPOST
  1

  9
$DIMALT
 70
     0
  9
$DIMALTD
 70
     3
  9
$DIMALTF
 40
0.03937007874016
  9
$DIMLFAC
 40
1.0
  9
$DIMTOFL
 70
     1
  9
$DIMTVP
 40
0.0
  9
$DIMTIX
 70
     0
  9
$DIMSOXD
 70
     0
  9
$DIMSAH
 70
     0
  9
$DIMBLK1
  1

  9
$DIMBLK2
  1

  9
$DIMSTYLE
  2
SANINDUSA
  9
$DIMCLRD
 70
   256
  9
$DIMCLRE
 70
   256
  9
$DIMCLRT
 70
   256
  9
$DIMTFAC
 40
1.0
  9
$DIMGAP
 40
1.0
  9
$DIMJUST
 70
     0
  9
$DIMSD1
 70
     0
  9
$DIMSD2
 70
     0
  9
$DIMTOLJ
 70
     0
  9
$DIMTZIN
 70
     8
  9
$DIMALTZ
 70
     0
  9
$DIMALTTZ
 70
     0
  9
$DIMUPT
 70
     0
  9
$DIMDEC
 70
     1
  9
$DIMTDEC
 70
     1
  9
$DIMALTU
 70
     2
  9
$DIMALTTD
 70
     3
  9
$DIMTXSTY
  7
SANINDUSA
  9
$DIMAUNIT
 70
     0
  9
$DIMADEC
 70
     1
  9
$DIMALTRND
 40
0.0
  9
$DIMAZIN
 70
     0
  9
$DIMDSEP
 70
    44
  9
$DIMATFIT
 70
     3
  9
$DIMFRAC
 70
     0
  9
$DIMLDRBLK
  1

  9
$DIMLUNIT
 70
     2
  9
$DIMLWD
 70
    -1
  9
$DIMLWE
 70
    -1
  9
$DIMTMOVE
 70
     0
  9
$LUNITS
 70
     2
  9
$LUPREC
 70
     4
  9
$SKETCHINC
 40
1.0
  9
$FILLETRAD
 40
0.1
  9
$AUNITS
 70
     0
  9
$AUPREC
 70
     0
  9
$MENU
  1
.
  9
$ELEVATION
 40
0.0
  9
$PELEVATION
 40
0.0
  9
$THICKNESS
 40
0.0
  9
$LIMCHECK
 70
     0
  9
$CHAMFERA
 40
10.0
  9
$CHAMFERB
 40
10.0
  9
$CHAMFERC
 40
20.0
  9
$CHAMFERD
 40
0.0
  9
$SKPOLY
 70
     0
  9
$TDCREATE
 40
2453560.416201887
  9
$TDUCREATE
 40
2453560.374535220
  9
$TDUPDATE
 40
2453977.661277118
  9
$TDUUPDATE
 40
2453977.619610451
  9
$TDINDWG
 40
0.0066804282
  9
$TDUSRTIMER
 40
0.0066804282
  9
$USRTIMER
 70
     1
  9
$ANGBASE
 50
0.0
  9
$ANGDIR
 70
     0
  9
$PDMODE
 70
     0
  9
$PDSIZE
 40
0.0
  9
$PLINEWID
 40
0.0
  9
$SPLFRAME
 70
     0
  9
$SPLINETYPE
 70
     6
  9
$SPLINESEGS
 70
     8
  9
$HANDSEED
  5
1161
  9
$SURFTAB1
 70
     6
  9
$SURFTAB2
 70
     6
  9
$SURFTYPE
 70
     6
  9
$SURFU
 70
     6
  9
$SURFV
 70
     6
  9
$UCSBASE
  2

  9
$UCSNAME
  2

  9
$UCSORG
 10
0.0
 20
0.0
 30
0.0
  9
$UCSXDIR
 10
1.0
 20
0.0
 30
0.0
  9
$UCSYDIR
 10
0.0
 20
1.0
 30
0.0
  9
$UCSORTHOREF
  2

  9
$UCSORTHOVIEW
 70
     0
  9
$UCSORGTOP
 10
0.0
 20
0.0
 30
0.0
  9
$UCSORGBOTTOM
 10
0.0
 20
0.0
 30
0.0
  9
$UCSORGLEFT
 10
0.0
 20
0.0
 30
0.0
  9
$UCSORGRIGHT
 10
0.0
 20
0.0
 30
0.0
  9
$UCSORGFRONT
 10
0.0
 20
0.0
 30
0.0
  9
$UCSORGBACK
 10
0.0
 20
0.0
 30
0.0
  9
$PUCSBASE
  2

  9
$PUCSNAME
  2

  9
$PUCSORG
 10
0.0
 20
0.0
 30
0.0
  9
$PUCSXDIR
 10
1.0
 20
0.0
 30
0.0
  9
$PUCSYDIR
 10
0.0
 20
1.0
 30
0.0
  9
$PUCSORTHOREF
  2

  9
$PUCSORTHOVIEW
 70
     0
  9
$PUCSORGTOP
 10
0.0
 20
0.0
 30
0.0
  9
$PUCSORGBOTTOM
 10
0.0
 20
0.0
 30
0.0
  9
$PUCSORGLEFT
 10
0.0
 20
0.0
 30
0.0
  9
$PUCSORGRIGHT
 10
0.0
 20
0.0
 30
0.0
  9
$PUCSORGFRONT
 10
0.0
 20
0.0
 30
0.0
  9
$PUCSORGBACK
 10
0.0
 20
0.0
 30
0.0
  9
$USERI1
 70
     0
  9
$USERI2
 70
     0
  9
$USERI3
 70
     0
  9
$USERI4
 70
     0
  9
$USERI5
 70
     0
  9
$USERR1
 40
0.0
  9
$USERR2
 40
0.0
  9
$USERR3
 40
0.0
  9
$USERR4
 40
0.0
  9
$USERR5
 40
0.0
  9
$WORLDVIEW
 70
     1
  9
$SHADEDGE
 70
     3
  9
$SHADEDIF
 70
    70
  9
$TILEMODE
 70
     1
  9
$MAXACTVP
 70
    64
  9
$PINSBASE
 10
0.0
 20
0.0
 30
0.0
  9
$PLIMCHECK
 70
     0
  9
$PEXTMIN
 10
1.000000000000000E+20
 20
1.000000000000000E+20
 30
1.000000000000000E+20
  9
$PEXTMAX
 10
-1.000000000000000E+20
 20
-1.000000000000000E+20
 30
-1.000000000000000E+20
  9
$PLIMMIN
 10
0.0
 20
0.0
  9
$PLIMMAX
 10
420.0
 20
297.0
  9
$UNITMODE
 70
     0
  9
$VISRETAIN
 70
     1
  9
$PLINEGEN
 70
     0
  9
$PSLTSCALE
 70
     1
  9
$TREEDEPTH
 70
  3020
  9
$CMLSTYLE
  2
Standard
  9
$CMLJUST
 70
     0
  9
$CMLSCALE
 40
20.0
  9
$PROXYGRAPHICS
 70
     1
  9
$MEASUREMENT
 70
     1
  9
$CELWEIGHT
370
    -1
  9
$ENDCAPS
280
     0
  9
$JOINSTYLE
280
     0
  9
$LWDISPLAY
290
     0
  9
$INSUNITS
 70
     6
  9
$HYPERLINKBASE
  1

  9
$STYLESHEET
  1
monochrome.ctb
  9
$XEDIT
290
     1
  9
$CEPSNTYPE
380
     0
  9
$PSTYLEMODE
290
     1
  9
$FINGERPRINTGUID
  2
{C4BE7BDF-1CB2-4011-B07E-16D8999DA5D3}
  9
$VERSIONGUID
  2
{69B3C563-2693-405C-9B68-0FC4C9A3F4EA}
  9
$EXTNAMES
290
     1
  9
$PSVPSCALE
 40
0.0
  9
$OLESTARTUP
290
     0
  0
ENDSEC
  0
SECTION
  2
CLASSES
  0
CLASS
  1
ACDBDICTIONARYWDFLT
  2
AcDbDictionaryWithDefault
  3
ObjectDBX Classes
 90
        0
280
     0
281
     0
  0
CLASS
  1
ACDBPLACEHOLDER
  2
AcDbPlaceHolder
  3
ObjectDBX Classes
 90
        0
280
     0
281
     0
  0
CLASS
  1
LAYOUT
  2
AcDbLayout
  3
ObjectDBX Classes
 90
        0
280
     0
281
     0
  0
CLASS
  1
DICTIONARYVAR
  2
AcDbDictionaryVar
  3
ObjectDBX Classes
 90
        0
280
     0
281
     0
  0
CLASS
  1
DIMASSOC
  2
AcDbDimAssoc
  3
"AcDbDimAssoc|Product Desc:     AcDim ARX App For Dimension|Company:          Autodesk, Inc.|WEB Address:      www.autodesk.com"
 90
    32768
280
     0
281
     0
  0
CLASS
  1
TABLESTYLE
  2
AcDbTableStyle
  3
ObjectDBX Classes
 90
     2047
280
     0
281
     0
  0
CLASS
  1
SORTENTSTABLE
  2
AcDbSortentsTable
  3
ObjectDBX Classes
 90
        0
280
     0
281
     0
  0
ENDSEC
  0
SECTION
  2
TABLES
  0
TABLE
  2
VPORT
  5
8
330
0
100
AcDbSymbolTable
 70
     2
  0
VPORT
  5
1159
330
8
100
AcDbSymbolTableRecord
100
AcDbViewportTableRecord
  2
*Active
 70
     0
 10
0.0
 20
0.0
 11
1.0
 21
1.0
 12
166.7664687246478
 22
169.7150082121088
 13
0.0
 23
0.0
 14
10.0
 24
10.0
 15
10.0
 25
10.0
 16
0.0
 26
0.0
 36
1.0
 17
0.0
 27
0.0
 37
0.0
 40
1.820511071380213
 41
1.593939393939393
 42
50.0
 43
0.0
 44
0.0
 50
0.0
 51
0.0
 71
     0
 72
   100
 73
     1
 74
     2
 75
     0
 76
     0
 77
     0
 78
     0
281
     0
 65
     1
110
0.0
120
0.0
130
0.0
111
1.0
121
0.0
131
0.0
112
0.0
122
1.0
132
0.0
 79
     0
146
0.0
  0
ENDTAB
  0
TABLE
  2
LTYPE
  5
5
330
0
100
AcDbSymbolTable
 70
     3
  0
LTYPE
  5
14
330
5
100
AcDbSymbolTableRecord
100
AcDbLinetypeTableRecord
  2
ByBlock
 70
     0
  3

 72
    65
 73
     0
 40
0.0
  0
LTYPE
  5
15
330
5
100
AcDbSymbolTableRecord
100
AcDbLinetypeTableRecord
  2
ByLayer
 70
     0
  3

 72
    65
 73
     0
 40
0.0
  0
LTYPE
  5
16
330
5
100
AcDbSymbolTableRecord
100
AcDbLinetypeTableRecord
  2
Continuous
 70
     0
  3
Solid line
 72
    65
 73
     0
 40
0.0
  0
LTYPE
  5
2D
330
5
100
AcDbSymbolTableRecord
100
AcDbLinetypeTableRecord
  2
DASHDOT
 70
     0
  3
Dash dot __ . __ . __ . __ . __ . __ . __ . __
 72
    65
 73
     4
 40
25.4
 49
12.7
 74
     0
 49
-6.349999999999999
 74
     0
 49
0.0
 74
     0
 49
-6.349999999999999
 74
     0
  0
LTYPE
  5
2E
330
5
100
AcDbSymbolTableRecord
100
AcDbLinetypeTableRecord
  2
HIDDEN
 70
     0
  3
Hidden __ __ __ __ __ __ __ __ __ __ __ __ __ _
 72
    65
 73
     2
 40
9.524999999999998
 49
6.349999999999999
 74
     0
 49
-3.174999999999999
 74
     0
  0
ENDTAB
  0
TABLE
  2
LAYER
  5
2
330
0
100
AcDbSymbolTable
 70
    17
  0
LAYER
  5
10
330
2
100
AcDbSymbolTableRecord
100
AcDbLayerTableRecord
  2
0
 70
     0
 62
     7
  6
Continuous
370
    -3
390
F
  0
LAYER
  5
2F
330
2
100
AcDbSymbolTableRecord
100
AcDbLayerTableRecord
  2
1
 70
     0
 62
     1
  6
Continuous
370
    -3
390
F
  0
LAYER
  5
30
330
2
100
AcDbSymbolTableRecord
100
AcDbLayerTableRecord
  2
2
 70
     0
 62
     2
  6
Continuous
370
    -3
390
F
  0
LAYER
  5
31
330
2
100
AcDbSymbolTableRecord
100
AcDbLayerTableRecord
  2
3
 70
     0
 62
     3
  6
Continuous
370
    -3
390
F
  0
LAYER
  5
32
330
2
100
AcDbSymbolTableRecord
100
AcDbLayerTableRecord
  2
4
 70
     0
 62
     4
  6
Continuous
370
    -3
390
F
  0
LAYER
  5
33
330
2
100
AcDbSymbolTableRecord
100
AcDbLayerTableRecord
  2
5
 70
     0
 62
     5
  6
Continuous
370
    -3
390
F
  0
LAYER
  5
34
330
2
100
AcDbSymbolTableRecord
100
AcDbLayerTableRecord
  2
6
 70
     0
 62
     6
  6
Continuous
370
    -3
390
F
  0
LAYER
  5
35
330
2
100
AcDbSymbolTableRecord
100
AcDbLayerTableRecord
  2
7
 70
     0
 62
     7
  6
Continuous
370
    -3
390
F
  0
LAYER
  5
36
330
2
100
AcDbSymbolTableRecord
100
AcDbLayerTableRecord
  2
cen
 70
     0
 62
     7
  6
DASHDOT
370
    -3
390
F
  0
LAYER
  5
37
330
2
100
AcDbSymbolTableRecord
100
AcDbLayerTableRecord
  2
hid
 70
     0
 62
     7
  6
HIDDEN
370
    -3
390
F
  0
LAYER
  5
5D6
330
2
100
AcDbSymbolTableRecord
100
AcDbLayerTableRecord
  2
hatch
 70
     0
 62
     9
  6
Continuous
370
    -3
390
F
  0
LAYER
  5
8AF
330
2
100
AcDbSymbolTableRecord
100
AcDbLayerTableRecord
  2
9
 70
     0
 62
     9
  6
Continuous
370
    -3
390
F
  0
LAYER
  5
8F8
330
2
100
AcDbSymbolTableRecord
100
AcDbLayerTableRecord
  2
leg fin
 70
     0
 62
     9
  6
Continuous
370
    -3
390
F
  0
LAYER
  5
91D
330
2
100
AcDbSymbolTableRecord
100
AcDbLayerTableRecord
  2
cotas
 70
     0
 62
     1
  6
Continuous
370
    -3
390
F
  0
LAYER
  5
92F
330
2
100
AcDbSymbolTableRecord
100
AcDbLayerTableRecord
  2
Defpoints
 70
     0
 62
     7
  6
Continuous
290
     0
370
    -3
390
F
  0
LAYER
  5
BA5
330
2
100
AcDbSymbolTableRecord
100
AcDbLayerTableRecord
  2
SANINDUSA
 70
     0
 62
     3
  6
Continuous
370
    -3
390
F
  0
LAYER
  5
1134
330
2
100
AcDbSymbolTableRecord
100
AcDbLayerTableRecord
  2
BLOCKS
 70
     0
 62
     3
  6
Continuous
370
    -3
390
F
  0
ENDTAB
  0
TABLE
  2
STYLE
  5
3
330
0
100
AcDbSymbolTable
 70
     4
  0
STYLE
  5
11
330
3
100
AcDbSymbolTableRecord
100
AcDbTextStyleTableRecord
  2
Standard
 70
     0
 40
0.0
 41
1.0
 50
0.0
 71
     0
 42
2.5
  3
Avgardn.ttf
  4

1001
ACAD
1000
AvantGarde Bk BT
1071
       34
  0
STYLE
  5
2C
330
3
100
AcDbSymbolTableRecord
100
AcDbTextStyleTableRecord
  2

 70
     1
 40
0.0
 41
1.0
 50
0.0
 71
     0
 42
2.5
  3
ltypeshp.shx
  4

  0
STYLE
  5
91F
330
3
100
AcDbSymbolTableRecord
100
AcDbTextStyleTableRecord
  2
SANINDUSA
 70
     0
 40
0.0
 41
1.0
 50
0.0
 71
     0
 42
2.5
  3
verdana.TTF
  4

1001
ACAD
1000
Verdana
1071
       34
  0
STYLE
  5
BB0
330
3
100
AcDbSymbolTableRecord
100
AcDbTextStyleTableRecord
  2
SLDTEXTSTYLE0
 70
     0
 40
0.0
 41
0.75
 50
0.0
 71
     0
 42
0.0
  3
TXT
  4

  0
ENDTAB
  0
TABLE
  2
VIEW
  5
6
330
0
100
AcDbSymbolTable
 70
     0
  0
ENDTAB
  0
TABLE
  2
UCS
  5
7
330
0
100
AcDbSymbolTable
 70
     0
  0
ENDTAB
  0
TABLE
  2
APPID
  5
9
330
0
100
AcDbSymbolTable
 70
     2
  0
APPID
  5
12
330
9
100
AcDbSymbolTableRecord
100
AcDbRegAppTableRecord
  2
ACAD
 70
     0
  0
APPID
  5
3A
330
9
100
AcDbSymbolTableRecord
100
AcDbRegAppTableRecord
  2
DCO15
 70
     0
  0
ENDTAB
  0
TABLE
  2
DIMSTYLE
  5
A
330
0
100
AcDbSymbolTable
 70
     2
100
AcDbDimStyleTable
 71
     1
340
921
  0
DIMSTYLE
105
45
330
A
100
AcDbSymbolTableRecord
100
AcDbDimStyleTableRecord
  2
STANDARD
 70
     0
289
     0
340
11
  0
DIMSTYLE
105
921
330
A
100
AcDbSymbolTableRecord
100
AcDbDimStyleTableRecord
  2
SANINDUSA
 70
     0
 41
2.0
 42
1.0
 43
1.0
 44
1.0
 73
     0
 74
     0
 77
     1
 78
     8
140
2.0
141
0.0
143
0.03937007874016
147
1.0
171
     3
172
     1
176
   256
177
   256
178
   256
179
     1
271
     1
272
     1
274
     3
278
    44
283
     0
284
     8
340
91F
371
    -1
372
    -1
  0
ENDTAB
  0
TABLE
  2
BLOCK_RECORD
  5
1
330
0
100
AcDbSymbolTable
 70
     5
  0
BLOCK_RECORD
  5
1F
102
{ACAD_XDICTIONARY
360
1117
102
}
330
1
100
AcDbSymbolTableRecord
100
AcDbBlockTableRecord
  2
*Model_Space
340
22
  0
BLOCK_RECORD
  5
1B
330
1
100
AcDbSymbolTableRecord
100
AcDbBlockTableRecord
  2
*Paper_Space
340
1E
  0
BLOCK_RECORD
  5
23
330
1
100
AcDbSymbolTableRecord
100
AcDbBlockTableRecord
  2
*Paper_Space0
340
26
  0
BLOCK_RECORD
  5
919
330
1
100
AcDbSymbolTableRecord
100
AcDbBlockTableRecord
  2
_DotSmall
340
0
  0
BLOCK_RECORD
  5
922
330
1
100
AcDbSymbolTableRecord
100
AcDbBlockTableRecord
  2
base para cotas
340
0
310
2800000020000000200000000100080000000000000400000000000000000000000000000000000000000000000080000080000000808000800000008000800080800000C0C0C000C0DCC000F0CAA6000020400000206000002080000020A0000020C0000020E00000400000004020000040400000406000004080000040A0
310
000040C0000040E00000600000006020000060400000606000006080000060A0000060C0000060E00000800000008020000080400000806000008080000080A0000080C0000080E00000A0000000A0200000A0400000A0600000A0800000A0A00000A0C00000A0E00000C0000000C0200000C0400000C0600000C0800000C0
310
A00000C0C00000C0E00000E0000000E0200000E0400000E0600000E0800000E0A00000E0C00000E0E00040000000400020004000400040006000400080004000A0004000C0004000E00040200000402020004020400040206000402080004020A0004020C0004020E000404000004040200040404000404060004040800040
310
40A0004040C0004040E00040600000406020004060400040606000406080004060A0004060C0004060E00040800000408020004080400040806000408080004080A0004080C0004080E00040A0000040A0200040A0400040A0600040A0800040A0A00040A0C00040A0E00040C0000040C0200040C0400040C0600040C08000
310
40C0A00040C0C00040C0E00040E0000040E0200040E0400040E0600040E0800040E0A00040E0C00040E0E00080000000800020008000400080006000800080008000A0008000C0008000E00080200000802020008020400080206000802080008020A0008020C0008020E00080400000804020008040400080406000804080
310
008040A0008040C0008040E00080600000806020008060400080606000806080008060A0008060C0008060E00080800000808020008080400080806000808080008080A0008080C0008080E00080A0000080A0200080A0400080A0600080A0800080A0A00080A0C00080A0E00080C0000080C0200080C0400080C0600080C0
310
800080C0A00080C0C00080C0E00080E0000080E0200080E0400080E0600080E0800080E0A00080E0C00080E0E000C0000000C0002000C0004000C0006000C0008000C000A000C000C000C000E000C0200000C0202000C0204000C0206000C0208000C020A000C020C000C020E000C0400000C0402000C0404000C0406000C0
310
408000C040A000C040C000C040E000C0600000C0602000C0604000C0606000C0608000C060A000C060C000C060E000C0800000C0802000C0804000C0806000C0808000C080A000C080C000C080E000C0A00000C0A02000C0A04000C0A06000C0A08000C0A0A000C0A0C000C0A0E000C0C00000C0C02000C0C04000C0C06000
310
C0C08000C0C0A000F0FBFF00A4A0A000808080000000FF0000FF000000FFFF00FF000000FF00FF00FFFF0000FFFFFF00A4A4A4A4A4A4A4A4A4A4A4A4A4A4A4A4A4A4A4A4A4A4A4A4A4A4A4A4A4A4A4A4A4A4A4A4A4A4A4A4A4A4A4A4A4A4A4A4A4A4A4A4A4A4A4A4A4A4A4A4A4A4A4A4A4A4A4A4A4A4A4A4A4A4A4A4A4A4A4
310
A4A4A4A4A4A4A4A4A4A4A4A4A4A4A4A4A4A4A4A4A4A4A4A4A4A4A4A4A4A4A4A4A4A4A4A4A4A4A4A4A4A4A4A4A4A4A4A4A4A4A4A4A4A4A4A4A4A4A4A4A4A4A4A4A4A4A4A4A4A4A4A4A4A4A4A4A4A4A4A4A4A4A4A4A4A4A4A4A4A4A4A4A4A4A4A4A4A4A4A4A4A4A4A4A4A4A4A4A4A4A4A4A4A4A4A4A4A4A4A4A4A4A4A4A4A4A4
310
A4A4A4A4A4A4A4A4A4A4A4A4A4A4A4A4A4A4A4A4A4A4A4A4A4A4A4A4A4A4A4A4A4A4A4A4A4A4A4A4A4A4A4A4A4A4A4A4A4A4A4A4A4A4A4A4A4A4A4A4A4A4A4A4A4A4A4A4A4A4A4A4A4A4A4A4A4A4A4A4A4A4A4A4A4A4A4A4A4A4A4A4A4A4A4A4A4A4A4A4A4A4A4A4A4A4A4A4A4A4A4A4A4A4A4A4A4A4A4A4A4A4A4A4A4A4A4
310
A4A4A4A4A4A4A4A4A4A4A4A4A4A4A4A4A4A4A4A4A4A4A4A4A4A4A4A4A4A4A4A4A4A4A4A4A4A4A4A4A4A4A4A4A4A4A4A4A4A4A4A4A4A4A4A4A4A4A4A4A4A4A4A4A4A4A4A4A4A4A4A4A4A4A4A4A4A4A4A4A4A4A4A4A4A4A4A4A4A4A4A4A4A4A4A4A4A4A4A4A4A4A4A4A4A4A4A4A4A4A4A4A4A4A4A4F9F9F9F9F9F9F9F9F9F9F9
310
F9F9F9F9F9F9F9F9F9F9F9F9F9F9F9F9F9F9F9A4A4F9F9F9F9F9F9F9F9F9F9F9F9F9F9F9F9F9F9F9F9F9F9F9F9F9F9F9F9F9F9A4A4F9F9F9F9F9F9F9F9F9F9F9F9F9F9F9F9F9F9F9F9F9F9F9F9F9F9F9F9F9F9A4A4F9A4A4A4A4A4A4A4A4A4A4A4A4A4A4A4A4A4A4A4A4A4A4A4A4A4A4A4A4F9A4A4A4A4A4A4A4A4A4A4A4A4
310
A4A4A4A4A4A4A4A4A4A4A4A4A4A4A4A4A4A4A4A4A4A4A4A4A4A4A4A4A4A4A4A4A4A4A4A4A4A4A4A4A4A4A4A4A4A4A4A4A4A4A4A4A4A4A4A4A4A4A4A4A4A4A4A4A4A4A4A4A4A4A4A4A4A4A4A4A4A4A4A4A4A4A4A4A4A4A4A4A4A4A4A4A4A4A4A4A4A4A4A4A4A4A4A4A4A4A4A4A4A4A4A4A4A4A4A4A4A4A4A4A4A4A4A4A4A4A4
310
A4A4A4A4A4A4A4A4A4A4A4A4A4A4A4A4A4A4A4A4A4A4A4A4A4A4A4A4A4A4A4A4A4A4A4A4A4A4A4A4A4A4A4A4A4A4A4A4A4A4A4A4A4A4A4A4A4A4A4A4A4A4A4A4A4A4A4A4A4A4A4A4A4A4A4A4A4A4A4A4A4A4A4A4A4A4A4A4A4A4A4A4A4A4A4A4A4A4A4A4A4A4A4A4A4A4A4A4A4A4A4A4A4A4A4A4A4A4A4A4A4A4A4A4A4A4A4
310
A4A4A4A4A4A4A4A4A4A4A4A4A4A4A4A4A4A4A4A4A4A4A4A4A4A4A4A4A4A4A4A4A4A4A4A4A4A4A4A4A4A4A4A4A4A4A4A4A4A4A4A4A4A4A4A4A4A4A4A4A4A4A4A4A4A4A4A4A4A4A4A4A4A4A4A4A4A4A4A4A4A4A4A4A4A4A4A4A4A4A4A4A4A4A4A4A4A4A4A4A4A4A4A4A4A4A4A4A4A4A4A4A4A4A4A4A4A4A4A4A4A4A4A4A4A4A4
310
A4A4A4A4A4A4A4A4A4A4A4A4A4A4A4A4A4A4A4A4A4A4A4A4A4A4A4A4A4A4A4A4A4A4A4A4A4A4A4A4A4A4A4A4A4A4A4A4A4A4A4A4A4A4A4A4
1001
ACAD
1000
DesignCenter Data
1002
{
1070
     1
1070
     4
1002
}
  0
BLOCK_RECORD
  5
AA8
330
1
100
AcDbSymbolTableRecord
100
AcDbBlockTableRecord
  2
_CLOSED
340
0
  0
BLOCK_RECORD
  5
1135
330
1
100
AcDbSymbolTableRecord
100
AcDbBlockTableRecord
  2
108650PL
340
0
1001
ACAD
1000
DesignCenter Data
1002
{
1070
     1
1070
     4
1002
}
  0
ENDTAB
  0
ENDSEC
  0
SECTION
  2
BLOCKS
  0
BLOCK
  5
20
330
1F
100
AcDbEntity
  8
0
100
AcDbBlockBegin
  2
*Model_Space
 70
     0
 10
0.0
 20
0.0
 30
0.0
  3
*Model_Space
  1

  0
ENDBLK
  5
21
330
1F
100
AcDbEntity
  8
0
100
AcDbBlockEnd
  0
BLOCK
  5
1C
330
1B
100
AcDbEntity
 67
     1
  8
0
100
AcDbBlockBegin
  2
*Paper_Space
 70
     0
 10
0.0
 20
0.0
 30
0.0
  3
*Paper_Space
  1

  0
ENDBLK
  5
1D
330
1B
100
AcDbEntity
 67
     1
  8
0
100
AcDbBlockEnd
  0
BLOCK
  5
24
330
23
100
AcDbEntity
 67
     1
  8
0
100
AcDbBlockBegin
  2
*Paper_Space0
 70
     0
 10
0.0
 20
0.0
 30
0.0
  3
*Paper_Space0
  1

  0
ENDBLK
  5
25
330
23
100
AcDbEntity
 67
     1
  8
0
100
AcDbBlockEnd
  0
BLOCK
  5
91B
330
919
100
AcDbEntity
  8
0
100
AcDbBlockBegin
  2
_DotSmall
 70
     0
 10
0.0
 20
0.0
 30
0.0
  3
_DotSmall
  1

  0
LWPOLYLINE
  5
91A
330
919
100
AcDbEntity
  8
0
  6
ByBlock
 62
     0
100
AcDbPolyline
 90
        2
 70
     1
 43
0.5
 10
-0.0625
 20
0.0
 42
1.0
 10
0.0625
 20
0.0
 42
1.0
  0
ENDBLK
  5
91C
330
919
100
AcDbEntity
  8
0
100
AcDbBlockEnd
  0
BLOCK
  5
92A
330
922
100
AcDbEntity
  8
0
100
AcDbBlockBegin
  2
base para cotas
 70
     0
 10
0.0
 20
0.0
 30
0.0
  3
base para cotas
  1

  0
LINE
  5
B36
330
922
100
AcDbEntity
  8
cotas
100
AcDbLine
 10
0.0
 20
-30.0
 30
0.0
 11
327.1260136525398
 21
-30.0
 31
0.0
  0
LINE
  5
B37
330
922
100
AcDbEntity
  8
cotas
100
AcDbLine
 10
0.0
 20
-25.0
 30
0.0
 11
327.1260136525398
 21
-25.0
 31
0.0
  0
LINE
  5
B38
330
922
100
AcDbEntity
  8
cotas
100
AcDbLine
 10
0.0
 20
-20.0
 30
0.0
 11
327.1260136525398
 21
-20.0
 31
0.0
  0
LINE
  5
B39
330
922
100
AcDbEntity
  8
cotas
100
AcDbLine
 10
0.0
 20
-15.0
 30
0.0
 11
327.1260136525398
 21
-15.0
 31
0.0
  0
LINE
  5
B3A
330
922
100
AcDbEntity
  8
cotas
100
AcDbLine
 10
0.0
 20
-10.0
 30
0.0
 11
327.1260136525398
 21
-10.0
 31
0.0
  0
LINE
  5
B3B
330
922
100
AcDbEntity
  8
cotas
100
AcDbLine
 10
0.0
 20
0.0
 30
0.0
 11
0.0
 21
-30.0
 31
0.0
  0
LINE
  5
B3C
330
922
100
AcDbEntity
  8
cotas
100
AcDbLine
 10
327.1260136525398
 20
-30.0
 30
0.0
 11
327.1260136525398
 21
0.0
 31
0.0
  0
ENDBLK
  5
92B
330
922
100
AcDbEntity
  8
0
100
AcDbBlockEnd
  0
BLOCK
  5
AAD
330
AA8
100
AcDbEntity
  8
0
100
AcDbBlockBegin
  2
_CLOSED
 70
     0
 10
0.0
 20
0.0
 30
0.0
  3
_CLOSED
  1

  0
LINE
  5
AA9
330
AA8
100
AcDbEntity
  8
0
100
AcDbLine
 10
-1.0
 20
0.166667
 30
0.0
 11
0.0
 21
0.0
 31
0.0
  0
LINE
  5
AAA
330
AA8
100
AcDbEntity
  8
0
100
AcDbLine
 10
0.0
 20
0.0
 30
0.0
 11
-1.0
 21
-0.166667
 31
0.0
  0
LINE
  5
AAB
330
AA8
100
AcDbEntity
  8
0
100
AcDbLine
 10
-1.0
 20
0.166667
 30
0.0
 11
-1.0
 21
-0.166667
 31
0.0
  0
LINE
  5
AAC
330
AA8
100
AcDbEntity
  8
0
100
AcDbLine
 10
0.0
 20
0.0
 30
0.0
 11
-1.0
 21
0.0
 31
0.0
  0
ENDBLK
  5
AAE
330
AA8
100
AcDbEntity
  8
0
100
AcDbBlockEnd
  0
BLOCK
  5
1148
330
1135
100
AcDbEntity
  8
0
100
AcDbBlockBegin
  2
108650PL
 70
     0
 10
0.0
 20
0.0
 30
0.0
  3
108650PL
  1

  0
CIRCLE
  5
1136
330
1135
100
AcDbEntity
  8
BLOCKS
100
AcDbCircle
 10
0.2400083912084483
 20
-0.2001830579033594
 30
0.0
 40
0.0392110505378165
  0
ARC
  5
1137
330
1135
100
AcDbEntity
  8
BLOCKS
100
AcDbCircle
 10
0.0050002838534056
 20
-0.004999307908065
 30
0.0
 40
0.0049993082135779
100
AcDbArc
 50
90.02003076022358
 51
179.9799692444533
  0
ARC
  5
1138
330
1135
100
AcDbEntity
  8
BLOCKS
100
AcDbCircle
 10
0.0451629094536656
 20
-0.0451619335083251
 30
0.0
 40
0.0149709643619285
100
AcDbArc
 50
89.96754189862199
 51
180.0324581004269
  0
ARC
  5
1139
330
1135
100
AcDbEntity
  8
BLOCKS
100
AcDbCircle
 10
0.0451629094536656
 20
-0.3547096552561015
 30
0.0
 40
0.0149709643619285
100
AcDbArc
 50
179.967541899573
 51
270.032458101378
  0
ARC
  5
113A
330
1135
100
AcDbEntity
  8
BLOCKS
100
AcDbCircle
 10
0.0050002838534056
 20
-0.3948722808563616
 30
0.0
 40
0.0049993082135775
100
AcDbArc
 50
180.0200307555467
 51
269.9799692444533
  0
LINE
  5
113B
330
1135
100
AcDbEntity
  8
BLOCKS
100
AcDbLine
 10
0.0
 20
-0.0049975601366441
 30
0.0
 11
0.0
 21
-0.3948740286275551
 31
0.0
  0
LINE
  5
113C
330
1135
100
AcDbEntity
  8
BLOCKS
100
AcDbLine
 10
0.0301919474941315
 20
-0.3547011741943606
 30
0.0
 11
0.0301919474941315
 21
-0.0451704145698386
 31
0.0
  0
CIRCLE
  5
113D
330
1135
100
AcDbEntity
  8
BLOCKS
100
AcDbCircle
 10
0.2400367703276061
 20
-0.1999357943820996
 30
0.0
 40
0.0235
  0
ARC
  5
113E
330
1135
100
AcDbEntity
  8
BLOCKS
100
AcDbCircle
 10
0.5747106312014694
 20
-0.0451619335083251
 30
0.0
 40
0.0149709643619285
100
AcDbArc
 50
359.9675418995991
 51
90.03245810041395
  0
ARC
  5
113F
330
1135
100
AcDbEntity
  8
BLOCKS
100
AcDbCircle
 10
0.6148732568017295
 20
-0.004999307908065
 30
0.0
 40
0.0049993082135776
100
AcDbArc
 50
0.0200307555467205
 51
89.97996924445327
  0
ARC
  5
1140
330
1135
100
AcDbEntity
  8
BLOCKS
100
AcDbCircle
 10
0.5747106312014694
 20
-0.3547096552561015
 30
0.0
 40
0.0149709643619283
100
AcDbArc
 50
269.9675418986219
 51
0.032458100426922
  0
ARC
  5
1141
330
1135
100
AcDbEntity
  8
BLOCKS
100
AcDbCircle
 10
0.6148732568017295
 20
-0.3948722808563616
 30
0.0
 40
0.0049993082135775
100
AcDbArc
 50
270.0200307578786
 51
359.9799692444534
  0
LINE
  5
1142
330
1135
100
AcDbEntity
  8
BLOCKS
100
AcDbLine
 10
0.619873540655135
 20
-0.3948740286275551
 30
0.0
 11
0.619873540655135
 21
-0.0049975601366441
 31
0.0
  0
LINE
  5
1143
330
1135
100
AcDbEntity
  8
BLOCKS
100
AcDbLine
 10
0.5896815931614583
 20
-0.0451704145698386
 30
0.0
 11
0.5896815931614583
 21
-0.3547011741943606
 31
0.0
  0
LINE
  5
1144
330
1135
100
AcDbEntity
  8
BLOCKS
100
AcDbLine
 10
0.5747021501397285
 20
-0.3696806172156357
 30
0.0
 11
0.0451713905154065
 21
-0.3696806172156357
 31
0.0
  0
LINE
  5
1145
330
1135
100
AcDbEntity
  8
BLOCKS
100
AcDbLine
 10
0.0451713905154065
 20
-0.0301909715485636
 30
0.0
 11
0.5747021501397285
 21
-0.0301909715485636
 31
0.0
  0
LINE
  5
1146
330
1135
100
AcDbEntity
  8
BLOCKS
100
AcDbLine
 10
0.6148750045731504
 20
0.0
 30
0.0
 11
0.0049985360824394
 21
0.0
 31
0.0
  0
LINE
  5
1147
330
1135
100
AcDbEntity
  8
BLOCKS
100
AcDbLine
 10
0.0049985360824394
 20
-0.3998715887644266
 30
0.0
 11
0.6148750045731504
 21
-0.3998715887644266
 31
0.0
  0
ENDBLK
  5
1149
330
1135
100
AcDbEntity
  8
0
100
AcDbBlockEnd
  0
ENDSEC
  0
SECTION
  2
ENTITIES
  0
LINE
  5
D77
330
1F
100
AcDbEntity
  8
SANINDUSA
100
AcDbLine
 10
166.7943979086708
 20
169.7105894660668
 30
0.0
 11
166.7913993725887
 21
169.7105894660668
 31
0.0
  0
ARC
  5
D78
330
1F
100
AcDbEntity
  8
SANINDUSA
100
AcDbCircle
 10
166.7913993725887
 20
169.7125894660668
 30
0.0
 40
0.002
100
AcDbArc
 50
178.2100000000717
 51
270.0
  0
LINE
  5
D7B
330
1F
100
AcDbEntity
  8
SANINDUSA
100
AcDbLine
 10
167.4042743771616
 20
169.7105894660668
 30
0.0
 11
166.7943979086708
 21
169.7105894660668
 31
0.0
  0
LINE
  5
D7E
330
1F
100
AcDbEntity
  8
SANINDUSA
100
AcDbLine
 10
167.4072729132437
 20
169.7105894660668
 30
0.0
 11
167.4042743771616
 21
169.7105894660668
 31
0.0
  0
ARC
  5
D80
330
1F
100
AcDbEntity
  8
SANINDUSA
100
AcDbCircle
 10
167.4072729132437
 20
169.7125894660668
 30
0.0
 40
0.002
100
AcDbArc
 50
270.0
 51
1.790000000091045
  0
LINE
  5
D85
330
1F
100
AcDbEntity
  8
SANINDUSA
100
AcDbLine
 10
166.789400348534
 20
169.7126519386904
 30
0.0
 11
166.7941847660253
 21
169.8657456476258
 31
0.0
  0
LINE
  5
D87
330
1F
100
AcDbEntity
  8
SANINDUSA
100
AcDbLine
 10
167.4044875198071
 20
169.8657456476258
 30
0.0
 11
167.4092719372984
 21
169.7126519386904
 31
0.0
  0
ARC
  5
D88
330
1F
100
AcDbEntity
  8
SANINDUSA
100
AcDbCircle
 10
167.3994899596703
 20
169.8655894660668
 30
0.0
 40
0.0050000000000001
100
AcDbArc
 50
1.789999999928281
 51
90.0
  0
LINE
  5
D8A
330
1F
100
AcDbEntity
  8
SANINDUSA
100
AcDbLine
 10
166.7991823261621
 20
169.8705894660668
 30
0.0
 11
167.3994899596703
 21
169.8705894660668
 31
0.0
  0
ARC
  5
D8C
330
1F
100
AcDbEntity
  8
SANINDUSA
100
AcDbCircle
 10
166.7991823261621
 20
169.8655894660668
 30
0.0
 40
0.005
100
AcDbArc
 50
90.0
 51
178.2100000000717
  0
LINE
  5
D94
330
1F
100
AcDbEntity
  8
SANINDUSA
100
AcDbLine
 10
165.4456680973691
 20
170.0144984063454
 30
0.0
 11
165.4456680973691
 21
169.6246219378545
 31
0.0
  0
LINE
  5
D95
330
1F
100
AcDbEntity
  8
SANINDUSA
100
AcDbLine
 10
166.060543101942
 20
170.0194969424274
 30
0.0
 11
165.4506666334512
 21
170.0194969424274
 31
0.0
  0
LINE
  5
D96
330
1F
100
AcDbEntity
  8
SANINDUSA
100
AcDbLine
 10
166.0655416380241
 20
169.6246219378545
 30
0.0
 11
166.0655416380241
 21
170.0144984063454
 31
0.0
  0
LINE
  5
D97
330
1F
100
AcDbEntity
  8
SANINDUSA
100
AcDbLine
 10
165.4506666334512
 20
169.6196234017724
 30
0.0
 11
166.060543101942
 21
169.6196234017724
 31
0.0
  0
LWPOLYLINE
  5
D9A
330
1F
100
AcDbEntity
  8
SANINDUSA
100
AcDbPolyline
 90
        9
 70
   128
 43
0.0
 10
165.4504534908057
 20
170.009713988854
 10
165.4505503493554
 20
170.0106883671192
 10
165.4508353059767
 20
170.0116253469284
 10
165.451297423503
 20
170.012488965248
 10
165.4519189650011
 20
170.0132460747955
 10
165.4526760745486
 20
170.0138676162936
 10
165.4535396928682
 20
170.0143297338198
 10
165.4544766726773
 20
170.0146146904412
 10
165.4554510509425
 20
170.0147115489908
  0
LINE
  5
D9B
330
1F
100
AcDbEntity
  8
SANINDUSA
100
AcDbLine
 10
165.4554510509425
 20
170.0147115489908
 30
0.0
 11
166.0557586844507
 21
170.0147115489908
 31
0.0
  0
LWPOLYLINE
  5
D9E
330
1F
100
AcDbEntity
  8
SANINDUSA
100
AcDbPolyline
 90
        9
 70
   128
 43
0.0
 10
166.0557586844507
 20
170.0147115489908
 10
166.0567330627159
 20
170.0146146904412
 10
166.057670042525
 20
170.0143297338198
 10
166.0585336608447
 20
170.0138676162936
 10
166.0592907703922
 20
170.0132460747955
 10
166.0599123118903
 20
170.012488965248
 10
166.0603744294165
 20
170.0116253469284
 10
166.0606593860379
 20
170.0106883671192
 10
166.0607562445875
 20
170.009713988854
  0
LINE
  5
DA0
330
1F
100
AcDbEntity
  8
SANINDUSA
100
AcDbLine
 10
165.4504534908057
 20
169.6294063553458
 30
0.0
 11
165.4504534908057
 21
170.009713988854
 31
0.0
  0
LINE
  5
DA4
330
1F
100
AcDbEntity
  8
SANINDUSA
100
AcDbLine
 10
166.0607562445875
 20
170.009713988854
 30
0.0
 11
166.0607562445875
 21
169.6294063553458
 31
0.0
  0
ARC
  5
DB0
330
1F
100
AcDbEntity
  8
SANINDUSA
100
AcDbCircle
 10
166.0203951344672
 20
169.9743504388705
 30
0.0
 40
0.0099614394771595
100
AcDbArc
 50
359.8568561134886
 51
90.14314388651142
  0
LINE
  5
DB2
330
1F
100
AcDbEntity
  8
SANINDUSA
100
AcDbLine
 10
166.0203702475089
 20
169.9843118472597
 30
0.0
 11
165.4908394878844
 21
169.9843118472597
 31
0.0
  0
ARC
  5
DB4
330
1F
100
AcDbEntity
  8
SANINDUSA
100
AcDbCircle
 10
165.490814600926
 20
169.9743504388705
 30
0.0
 40
0.0099614394771801
100
AcDbArc
 50
89.85685611365141
 51
180.1431438863486
  0
LINE
  5
DB6
330
1F
100
AcDbEntity
  8
SANINDUSA
100
AcDbLine
 10
166.0303565428564
 20
169.6647947922877
 30
0.0
 11
166.0303565428564
 21
169.9743255519122
 31
0.0
  0
LINE
  5
DB8
330
1F
100
AcDbEntity
  8
SANINDUSA
100
AcDbLine
 10
165.4808531925368
 20
169.9743255519122
 30
0.0
 11
165.4808531925368
 21
169.6647947922877
 31
0.0
  0
ARC
  5
DBA
330
1F
100
AcDbEntity
  8
SANINDUSA
100
AcDbCircle
 10
166.0203951344672
 20
169.6647699053293
 30
0.0
 40
0.0099614394771724
100
AcDbArc
 50
269.8568561136514
 51
0.1431438863485853
  0
ARC
  5
DBC
330
1F
100
AcDbEntity
  8
SANINDUSA
100
AcDbCircle
 10
165.490814600926
 20
169.6647699053293
 30
0.0
 40
0.0099614394771785
100
AcDbArc
 50
179.8568561125115
 51
270.1431438863486
  0
LINE
  5
DBE
330
1F
100
AcDbEntity
  8
SANINDUSA
100
AcDbLine
 10
165.4908394878844
 20
169.6548084969401
 30
0.0
 11
166.0203702475089
 21
169.6548084969401
 31
0.0
  0
LINE
  5
DC0
330
1F
100
AcDbEntity
  8
SANINDUSA
100
AcDbLine
 10
166.0557586844507
 20
169.624408795209
 30
0.0
 11
165.4554510509425
 21
169.624408795209
 31
0.0
  0
LWPOLYLINE
  5
DC2
330
1F
100
AcDbEntity
  8
SANINDUSA
100
AcDbPolyline
 90
        9
 70
   128
 43
0.0
 10
165.4554510509425
 20
169.624408795209
 10
165.4544766726773
 20
169.6245056537587
 10
165.4535396928682
 20
169.62479061038
 10
165.4526760745486
 20
169.6252527279063
 10
165.4519189650011
 20
169.6258742694044
 10
165.451297423503
 20
169.6266313789519
 10
165.4508353059767
 20
169.6274949972715
 10
165.4505503493554
 20
169.6284319770806
 10
165.4504534908057
 20
169.6294063553458
  0
LWPOLYLINE
  5
DC3
330
1F
100
AcDbEntity
  8
SANINDUSA
100
AcDbPolyline
 90
        9
 70
   128
 43
0.0
 10
166.0607562445875
 20
169.6294063553458
 10
166.0606593860379
 20
169.6284319770806
 10
166.0603744294165
 20
169.6274949972715
 10
166.0599123118903
 20
169.6266313789519
 10
166.0592907703922
 20
169.6258742694044
 10
166.0585336608447
 20
169.6252527279063
 10
166.057670042525
 20
169.62479061038
 10
166.0567330627159
 20
169.6245056537587
 10
166.0557586844507
 20
169.624408795209
  0
LWPOLYLINE
  5
DC4
330
1F
100
AcDbEntity
  8
SANINDUSA
100
AcDbPolyline
 90
        9
 70
   128
 43
0.0
 10
166.0175920750995
 20
169.9815336748504
 10
166.0195369584263
 20
169.9813371303128
 10
166.0214073605724
 20
169.9807656778371
 10
166.0231316526859
 20
169.9798412017461
 10
166.0246438013392
 20
169.9785991057425
 10
166.0258858973428
 20
169.9770869570892
 10
166.0268103734338
 20
169.9753626649757
 10
166.0273818259095
 20
169.9734922628296
 10
166.027578370447
 20
169.9715473795028
  0
LINE
  5
DC5
330
1F
100
AcDbEntity
  8
SANINDUSA
100
AcDbLine
 10
166.0175920750995
 20
169.9815336748504
 30
0.0
 11
166.0203702475089
 21
169.9843118472597
 31
0.0
  0
LINE
  5
DC6
330
1F
100
AcDbEntity
  8
SANINDUSA
100
AcDbLine
 10
166.0303565428564
 20
169.9743255519122
 30
0.0
 11
166.027578370447
 21
169.9715473795028
 31
0.0
  0
LWPOLYLINE
  5
DC7
330
1F
100
AcDbEntity
  8
SANINDUSA
100
AcDbPolyline
 90
        9
 70
   128
 43
0.0
 10
165.4868964579558
 20
169.9682822864932
 10
165.4870930024933
 20
169.97022716982
 10
165.487664454969
 20
169.9720975719662
 10
165.4885889310599
 20
169.9738218640797
 10
165.4898310270636
 20
169.975334012733
 10
165.4913431757169
 20
169.9765761087366
 10
165.4930674678304
 20
169.9775005848275
 10
165.4949378699765
 20
169.9780720373033
 10
165.4968827533033
 20
169.9782685818408
  0
LINE
  5
DC8
330
1F
100
AcDbEntity
  8
SANINDUSA
100
AcDbLine
 10
165.4868964579558
 20
169.9682822864932
 30
0.0
 11
165.4808531925368
 21
169.9743255519122
 31
0.0
  0
LINE
  5
DC9
330
1F
100
AcDbEntity
  8
SANINDUSA
100
AcDbLine
 10
165.4908394878844
 20
169.9843118472597
 30
0.0
 11
165.4968827533033
 21
169.9782685818408
 31
0.0
  0
LWPOLYLINE
  5
DCA
330
1F
100
AcDbEntity
  8
SANINDUSA
100
AcDbPolyline
 90
        9
 70
   128
 43
0.0
 10
165.4968837225968
 20
169.6608527316526
 10
165.49493883927
 20
169.6610492761901
 10
165.4930684371239
 20
169.6616207286658
 10
165.4913441450103
 20
169.6625452047568
 10
165.4898319963571
 20
169.6637873007604
 10
165.4885899003535
 20
169.6652994494137
 10
165.4876654242625
 20
169.6670237415272
 10
165.4870939717867
 20
169.6688941436733
 10
165.4868974272493
 20
169.6708390270001
  0
LINE
  5
DCB
330
1F
100
AcDbEntity
  8
SANINDUSA
100
AcDbLine
 10
165.4968837225968
 20
169.6608527316526
 30
0.0
 11
165.4908394878844
 21
169.6548084969401
 31
0.0
  0
LINE
  5
DCC
330
1F
100
AcDbEntity
  8
SANINDUSA
100
AcDbLine
 10
165.4808531925368
 20
169.6647947922877
 30
0.0
 11
165.4868974272493
 21
169.6708390270001
 31
0.0
  0
LWPOLYLINE
  5
DCD
330
1F
100
AcDbEntity
  8
SANINDUSA
100
AcDbPolyline
 90
        9
 70
   128
 43
0.0
 10
166.027578370447
 20
169.6675729646971
 10
166.0273818259095
 20
169.6656280813703
 10
166.0268103734338
 20
169.6637576792241
 10
166.0258858973428
 20
169.6620333871106
 10
166.0246438013392
 20
169.6605212384573
 10
166.0231316526859
 20
169.6592791424537
 10
166.0214073605724
 20
169.6583546663628
 10
166.0195369584263
 20
169.657783213887
 10
166.0175920750995
 20
169.6575866693495
  0
LINE
  5
DCE
330
1F
100
AcDbEntity
  8
SANINDUSA
100
AcDbLine
 10
166.027578370447
 20
169.6675729646971
 30
0.0
 11
166.0303565428564
 21
169.6647947922877
 31
0.0
  0
LINE
  5
DCF
330
1F
100
AcDbEntity
  8
SANINDUSA
100
AcDbLine
 10
166.0203702475089
 20
169.6548084969401
 30
0.0
 11
166.0175920750995
 21
169.6575866693495
 31
0.0
  0
LINE
  5
DD0
330
1F
100
AcDbEntity
  8
SANINDUSA
100
AcDbLine
 10
165.905367034867
 20
169.9814947557592
 30
0.0
 11
166.0175920750995
 21
169.9815336748504
 31
0.0
  0
LWPOLYLINE
  5
DD1
330
1F
100
AcDbEntity
  8
SANINDUSA
100
AcDbPolyline
 90
       11
 70
   128
 43
0.0
 10
165.8904722931488
 20
169.9807308921134
 10
165.8907137063663
 20
169.9808508469605
 10
165.8913024431902
 20
169.9809674541787
 10
165.8922246428498
 20
169.9810779684566
 10
165.89345859378
 20
169.9811797879305
 10
165.8949752447813
 20
169.9812705154402
 10
165.8967388889796
 20
169.9813480149664
 10
165.8987080044814
 20
169.9814104619196
 10
165.9008362319336
 20
169.9814563860962
 10
165.9030734659726
 20
169.9814847062924
 10
165.905367034867
 20
169.9814947557592
  0
LINE
  5
DD2
330
1F
100
AcDbEntity
  8
SANINDUSA
100
AcDbLine
 10
165.8891420897093
 20
169.9782672725891
 30
0.0
 11
165.8904722931488
 21
169.9807308921134
 31
0.0
  0
LINE
  5
DD3
330
1F
100
AcDbEntity
  8
SANINDUSA
100
AcDbLine
 10
165.8558627644397
 20
169.9782567991877
 30
0.0
 11
165.8891420897093
 21
169.9782672725891
 31
0.0
  0
LINE
  5
DD4
330
1F
100
AcDbEntity
  8
SANINDUSA
100
AcDbLine
 10
165.5304285642349
 20
169.9782567991877
 30
0.0
 11
165.8558627644397
 21
169.9782567991877
 31
0.0
  0
LINE
  5
DD5
330
1F
100
AcDbEntity
  8
SANINDUSA
100
AcDbLine
 10
165.4968827533033
 20
169.9782685818408
 30
0.0
 11
165.5304285642349
 21
169.9782567991877
 31
0.0
  0
LINE
  5
DD6
330
1F
100
AcDbEntity
  8
SANINDUSA
100
AcDbLine
 10
165.4869026111674
 20
169.9486879389605
 30
0.0
 11
165.4868964579558
 21
169.9682822864932
 31
0.0
  0
LINE
  5
DD7
330
1F
100
AcDbEntity
  8
SANINDUSA
100
AcDbLine
 10
165.4869026111674
 20
169.6888931669562
 30
0.0
 11
165.4869026111674
 21
169.9486879389605
 31
0.0
  0
LINE
  5
DD8
330
1F
100
AcDbEntity
  8
SANINDUSA
100
AcDbLine
 10
165.4868974272493
 20
169.6708390270001
 30
0.0
 11
165.4869026111674
 21
169.6888931669562
 31
0.0
  0
LINE
  5
DD9
330
1F
100
AcDbEntity
  8
SANINDUSA
100
AcDbLine
 10
166.027578370447
 20
169.9715473795028
 30
0.0
 11
166.027578370447
 21
169.6675729646971
 31
0.0
  0
LINE
  5
DDA
330
1F
100
AcDbEntity
  8
SANINDUSA
100
AcDbLine
 10
165.5318789925172
 20
169.6608657046401
 30
0.0
 11
165.4968837225968
 21
169.6608527316526
 31
0.0
  0
LINE
  5
DDB
330
1F
100
AcDbEntity
  8
SANINDUSA
100
AcDbLine
 10
165.8542889764641
 20
169.6608657046401
 30
0.0
 11
165.5318789925172
 21
169.6608657046401
 31
0.0
  0
LINE
  5
DDC
330
1F
100
AcDbEntity
  8
SANINDUSA
100
AcDbLine
 10
165.8891415482095
 20
169.6608540745021
 30
0.0
 11
165.8542889764641
 21
169.6608657046401
 31
0.0
  0
LINE
  5
DDD
330
1F
100
AcDbEntity
  8
SANINDUSA
100
AcDbLine
 10
165.8904722931488
 20
169.6583894520865
 30
0.0
 11
165.8891415482095
 21
169.6608540745021
 31
0.0
  0
LWPOLYLINE
  5
DDE
330
1F
100
AcDbEntity
  8
SANINDUSA
100
AcDbPolyline
 90
       11
 70
   128
 43
0.0
 10
165.905367034867
 20
169.6576255884407
 10
165.9030734659726
 20
169.6576356379075
 10
165.9008362319336
 20
169.6576639581037
 10
165.8987080044814
 20
169.6577098822803
 10
165.8967388889796
 20
169.6577723292334
 10
165.8949752447813
 20
169.6578498287597
 10
165.89345859378
 20
169.6579405562694
 10
165.8922246428498
 20
169.6580423757432
 10
165.8913024431902
 20
169.6581528900211
 10
165.8907137063663
 20
169.6582694972394
 10
165.8904722931488
 20
169.6583894520865
  0
LINE
  5
DDF
330
1F
100
AcDbEntity
  8
SANINDUSA
100
AcDbLine
 10
166.0175920750995
 20
169.6575866693495
 30
0.0
 11
165.905367034867
 21
169.6576255884407
 31
0.0
  0
LINE
  5
DE0
330
1F
100
AcDbEntity
  8
SANINDUSA
100
AcDbLine
 10
166.0557586844507
 20
170.0147115489908
 30
0.0
 11
166.060543101942
 21
170.0194959664821
 31
0.0
  0
ARC
  5
DE1
330
1F
100
AcDbEntity
  8
SANINDUSA
100
AcDbCircle
 10
166.0605413541707
 20
170.0144966585741
 30
0.0
 40
0.0049993082135796
100
AcDbArc
 50
0.0200307974367688
 51
89.97996924441425
  0
LINE
  5
DE2
330
1F
100
AcDbEntity
  8
SANINDUSA
100
AcDbLine
 10
166.0655406620788
 20
170.0144984063454
 30
0.0
 11
166.0607562445875
 21
170.009713988854
 31
0.0
  0
LINE
  5
DE3
330
1F
100
AcDbEntity
  8
SANINDUSA
100
AcDbLine
 10
165.4504534908057
 20
170.009713988854
 30
0.0
 11
165.4456690733144
 21
170.0144984063454
 31
0.0
  0
ARC
  5
DE4
330
1F
100
AcDbEntity
  8
SANINDUSA
100
AcDbCircle
 10
165.4506683812225
 20
170.0144966585741
 30
0.0
 40
0.0049993082135927
100
AcDbArc
 50
90.0200307557486
 51
179.9799691348199
  0
LINE
  5
DE5
330
1F
100
AcDbEntity
  8
SANINDUSA
100
AcDbLine
 10
165.4506666334512
 20
170.0194959664821
 30
0.0
 11
165.4554510509425
 21
170.0147115489908
 31
0.0
  0
LINE
  5
DE6
330
1F
100
AcDbEntity
  8
SANINDUSA
100
AcDbLine
 10
165.4554510509425
 20
169.624408795209
 30
0.0
 11
165.4506666334512
 21
169.6196243777177
 31
0.0
  0
ARC
  5
DE7
330
1F
100
AcDbEntity
  8
SANINDUSA
100
AcDbCircle
 10
165.4506683812225
 20
169.6246236856258
 30
0.0
 40
0.0049993082135753
100
AcDbArc
 50
180.0200307555858
 51
269.9799692444142
  0
LINE
  5
DE8
330
1F
100
AcDbEntity
  8
SANINDUSA
100
AcDbLine
 10
165.4456690733144
 20
169.6246219378545
 30
0.0
 11
165.4504534908057
 21
169.6294063553458
 31
0.0
  0
LINE
  5
DE9
330
1F
100
AcDbEntity
  8
SANINDUSA
100
AcDbLine
 10
166.0607562445875
 20
169.6294063553458
 30
0.0
 11
166.0655406620788
 21
169.6246219378545
 31
0.0
  0
ARC
  5
DEA
330
1F
100
AcDbEntity
  8
SANINDUSA
100
AcDbCircle
 10
166.0605413541708
 20
169.6246236856258
 30
0.0
 40
0.0049993082135576
100
AcDbArc
 50
270.02003075526
 51
359.9799692447399
  0
LINE
  5
DEB
330
1F
100
AcDbEntity
  8
SANINDUSA
100
AcDbLine
 10
166.060543101942
 20
169.6196243777177
 30
0.0
 11
166.0557586844507
 21
169.624408795209
 31
0.0
  0
LINE
  5
DEC
330
1F
100
AcDbEntity
  8
SANINDUSA
100
AcDbLine
 10
166.060543101942
 20
170.0194959664821
 30
0.0
 11
165.4506666334512
 21
170.0194959664821
 31
0.0
  0
LINE
  5
DED
330
1F
100
AcDbEntity
  8
SANINDUSA
100
AcDbLine
 10
165.4456690733144
 20
170.0144984063454
 30
0.0
 11
165.4456690733144
 21
169.6246219378545
 31
0.0
  0
LINE
  5
DEE
330
1F
100
AcDbEntity
  8
SANINDUSA
100
AcDbLine
 10
166.0655406620788
 20
169.6246219378545
 30
0.0
 11
166.0655406620788
 21
170.0144984063454
 31
0.0
  0
LINE
  5
DEF
330
1F
100
AcDbEntity
  8
SANINDUSA
100
AcDbLine
 10
165.4506666334512
 20
169.6196243777177
 30
0.0
 11
166.060543101942
 21
169.6196243777177
 31
0.0
  0
LWPOLYLINE
  5
DFA
330
1F
100
AcDbEntity
  8
SANINDUSA
100
AcDbPolyline
 90
        9
 70
   128
 43
0.0
 10
165.9004682919543
 20
169.9707445967658
 10
165.9002736981365
 20
169.9726910160361
 10
165.8997031491625
 20
169.9745627759732
 10
165.8987785297344
 20
169.9762880809722
 10
165.8975353057312
 20
169.9778007530403
 10
165.8960211638338
 20
169.9790427702035
 10
165.8942941823948
 20
169.9799664920718
 10
165.8924206037108
 20
169.9805364871944
 10
165.8904722931488
 20
169.9807308921134
  0
LWPOLYLINE
  5
DFC
330
1F
100
AcDbEntity
  8
SANINDUSA
100
AcDbPolyline
 90
        9
 70
   128
 43
0.0
 10
165.8904722931488
 20
169.6583894520865
 10
165.8924206037108
 20
169.6585838570055
 10
165.8942941823948
 20
169.659153852128
 10
165.8960211638338
 20
169.6600775739963
 10
165.8975353057312
 20
169.6613195911595
 10
165.8987785297344
 20
169.6628322632276
 10
165.8997031491625
 20
169.6645575682267
 10
165.9002736981365
 20
169.6664293281638
 10
165.9004682919543
 20
169.6683757474341
  0
LINE
  5
DFE
330
1F
100
AcDbEntity
  8
SANINDUSA
100
AcDbLine
 10
165.9004682919543
 20
169.6683757474341
 30
0.0
 11
165.9004682919543
 21
169.9707445967658
 31
0.0
  0
LINE
  5
DFF
330
1F
100
AcDbEntity
  8
SANINDUSA
100
AcDbLine
 10
165.9004682919543
 20
169.9707445967658
 30
0.0
 11
165.8991380885148
 21
169.9682809772415
 31
0.0
  0
LWPOLYLINE
  5
E00
330
1F
100
AcDbEntity
  8
SANINDUSA
100
AcDbPolyline
 90
        9
 70
   128
 43
0.0
 10
165.8991380885148
 20
169.9682809772415
 10
165.898943494697
 20
169.9702273965118
 10
165.898372945723
 20
169.9720991564489
 10
165.897448326295
 20
169.9738244614479
 10
165.8962051022917
 20
169.975337133516
 10
165.8946909603943
 20
169.9765791506792
 10
165.8929639789553
 20
169.9775028725475
 10
165.8910904002713
 20
169.9780728676701
 10
165.8891420897093
 20
169.9782672725891
  0
LINE
  5
E01
330
1F
100
AcDbEntity
  8
SANINDUSA
100
AcDbLine
 10
165.8991347207134
 20
169.9491450696117
 30
0.0
 11
165.8991347207134
 21
169.6884315692302
 31
0.0
  0
LINE
  5
E02
330
1F
100
AcDbEntity
  8
SANINDUSA
100
AcDbLine
 10
165.8991380885148
 20
169.9682809772415
 30
0.0
 11
165.8991347207134
 21
169.9491450696117
 31
0.0
  0
LINE
  5
E03
330
1F
100
AcDbEntity
  8
SANINDUSA
100
AcDbLine
 10
165.899137547015
 20
169.6708403698497
 30
0.0
 11
165.9004682919543
 21
169.6683757474341
 31
0.0
  0
LINE
  5
E04
330
1F
100
AcDbEntity
  8
SANINDUSA
100
AcDbLine
 10
165.8991347207134
 20
169.6884315692302
 30
0.0
 11
165.899137547015
 21
169.6708403698497
 31
0.0
  0
LWPOLYLINE
  5
E05
330
1F
100
AcDbEntity
  8
SANINDUSA
100
AcDbPolyline
 90
        9
 70
   128
 43
0.0
 10
165.8891415482095
 20
169.6608540745021
 10
165.8910898587715
 20
169.6610484794211
 10
165.8929634374555
 20
169.6616184745437
 10
165.8946904188945
 20
169.662542196412
 10
165.8962045607919
 20
169.6637842135752
 10
165.8974477847951
 20
169.6652968856432
 10
165.8983724042232
 20
169.6670221906423
 10
165.8989429531972
 20
169.6688939505794
 10
165.899137547015
 20
169.6708403698497
  0
ARC
  5
E23
330
1F
100
AcDbEntity
  8
SANINDUSA
100
AcDbCircle
 10
165.6859789386405
 20
169.8194488048547
 30
0.0
 40
0.0396170071054195
100
AcDbArc
 50
113.7224883863887
 51
168.8752042606576
  0
ARC
  5
E26
330
1F
100
AcDbEntity
  8
SANINDUSA
100
AcDbCircle
 10
165.6859765152218
 20
169.8196814133257
 30
0.0
 40
0.0396155549539784
100
AcDbArc
 50
191.5835918671819
 51
246.3893762900734
  0
ARC
  5
E29
330
1F
100
AcDbEntity
  8
SANINDUSA
100
AcDbCircle
 10
165.6851683626514
 20
169.8194801380936
 30
0.0
 40
0.0396079096458996
100
AcDbArc
 50
9.677693877292965
 51
63.04364656551607
  0
ARC
  5
E2B
330
1F
100
AcDbEntity
  8
SANINDUSA
100
AcDbCircle
 10
165.6851713292468
 20
169.8196495154354
 30
0.0
 40
0.0396055810822848
100
AcDbArc
 50
296.8535042228678
 51
349.8655313737299
  0
ARC
  5
E2E
330
1F
100
AcDbEntity
  8
SANINDUSA
100
AcDbCircle
 10
165.6847504435662
 20
169.8195601709284
 30
0.0
 40
0.038390321251526
100
AcDbArc
 50
168.6845271949986
 51
191.773759115934
  0
ARC
  5
E2F
330
1F
100
AcDbEntity
  8
SANINDUSA
100
AcDbCircle
 10
165.6863896846634
 20
169.819560171449
 30
0.0
 40
0.0383907223622721
100
AcDbArc
 50
349.6768412416762
 51
9.86636331354169
  0
ARC
  5
E30
330
1F
100
AcDbEntity
  8
SANINDUSA
100
AcDbCircle
 10
165.6856046754824
 20
169.8206241301165
 30
0.0
 40
0.0383906432842255
100
AcDbArc
 50
62.85011161423218
 51
113.9168076566802
  0
ARC
  5
E31
330
1F
100
AcDbEntity
  8
SANINDUSA
100
AcDbCircle
 10
165.6856046774771
 20
169.8185068041576
 30
0.0
 40
0.0383905652807767
100
AcDbArc
 50
246.1957423618401
 51
297.0468615488515
  0
CIRCLE
  5
E43
330
1F
100
AcDbEntity
  8
SANINDUSA
100
AcDbCircle
 10
165.685604617824
 20
169.8195601720999
 30
0.0
 40
0.0235
  0
LINE
  5
E44
330
1F
100
AcDbEntity
  8
SANINDUSA
100
AcDbLine
 10
165.4456690733144
 20
170.0144984063454
 30
0.0
 11
165.4456680973691
 21
170.0144984063454
 31
0.0
  0
LINE
  5
E45
330
1F
100
AcDbEntity
  8
SANINDUSA
100
AcDbLine
 10
165.4506666334512
 20
170.0194959664821
 30
0.0
 11
165.4506666334512
 21
170.0194969424274
 31
0.0
  0
LINE
  5
E46
330
1F
100
AcDbEntity
  8
SANINDUSA
100
AcDbLine
 10
166.0655416380241
 20
170.0144984063454
 30
0.0
 11
166.0655406620788
 21
170.0144984063454
 31
0.0
  0
LINE
  5
E47
330
1F
100
AcDbEntity
  8
SANINDUSA
100
AcDbLine
 10
166.060543101942
 20
170.0194959664821
 30
0.0
 11
166.060543101942
 21
170.0194969424274
 31
0.0
  0
LINE
  5
E48
330
1F
100
AcDbEntity
  8
SANINDUSA
100
AcDbLine
 10
166.060543101942
 20
169.6196234017724
 30
0.0
 11
166.060543101942
 21
169.6196243777177
 31
0.0
  0
LINE
  5
E49
330
1F
100
AcDbEntity
  8
SANINDUSA
100
AcDbLine
 10
166.0655416380241
 20
169.6246219378545
 30
0.0
 11
166.0655406620788
 21
169.6246219378545
 31
0.0
  0
LINE
  5
E4A
330
1F
100
AcDbEntity
  8
SANINDUSA
100
AcDbLine
 10
165.4456690733144
 20
169.6246219378545
 30
0.0
 11
165.4456680973691
 21
169.6246219378545
 31
0.0
  0
LINE
  5
E4B
330
1F
100
AcDbEntity
  8
SANINDUSA
100
AcDbLine
 10
165.4506666334512
 20
169.6196234017724
 30
0.0
 11
165.4506666334512
 21
169.6196243777177
 31
0.0
  0
LINE
  5
E55
330
1F
100
AcDbEntity
  8
SANINDUSA
100
AcDbLine
 10
166.1912764913055
 20
169.7105894660668
 30
0.0
 11
166.1882779552234
 21
169.7105894660668
 31
0.0
  0
ARC
  5
E56
330
1F
100
AcDbEntity
  8
SANINDUSA
100
AcDbCircle
 10
166.1882779552234
 20
169.7125894660668
 30
0.0
 40
0.002
100
AcDbArc
 50
178.2099999999089
 51
270.0
  0
LINE
  5
E59
330
1F
100
AcDbEntity
  8
SANINDUSA
100
AcDbLine
 10
166.5811529597964
 20
169.7105894660668
 30
0.0
 11
166.1912764913055
 21
169.7105894660668
 31
0.0
  0
LINE
  5
E5A
330
1F
100
AcDbEntity
  8
SANINDUSA
100
AcDbLine
 10
166.5841514958784
 20
169.7105894660668
 30
0.0
 11
166.5811529597964
 21
169.7105894660668
 31
0.0
  0
ARC
  5
E5C
330
1F
100
AcDbEntity
  8
SANINDUSA
100
AcDbCircle
 10
166.5841514958784
 20
169.7125894660668
 30
0.0
 40
0.0020000000000002
100
AcDbArc
 50
270.0
 51
1.789999999928281
  0
LINE
  5
E5F
330
1F
100
AcDbEntity
  8
SANINDUSA
100
AcDbLine
 10
166.1862789311687
 20
169.7126519386904
 30
0.0
 11
166.19106334866
 21
169.8657456476258
 31
0.0
  0
LINE
  5
E63
330
1F
100
AcDbEntity
  8
SANINDUSA
100
AcDbLine
 10
166.5813661024418
 20
169.8657456476258
 30
0.0
 11
166.5861505199331
 21
169.7126519386904
 31
0.0
  0
LINE
  5
E65
330
1F
100
AcDbEntity
  8
SANINDUSA
100
AcDbLine
 10
166.1960609087968
 20
169.8705894660668
 30
0.0
 11
166.576368542305
 21
169.8705894660668
 31
0.0
  0
ARC
  5
E67
330
1F
100
AcDbEntity
  8
SANINDUSA
100
AcDbCircle
 10
166.1960609087968
 20
169.8655894660668
 30
0.0
 40
0.0050000000000001
100
AcDbArc
 50
90.0
 51
178.2100000000717
  0
ARC
  5
E68
330
1F
100
AcDbEntity
  8
SANINDUSA
100
AcDbCircle
 10
166.576368542305
 20
169.8655894660668
 30
0.0
 40
0.0050000000000002
100
AcDbArc
 50
1.789999999928281
 51
90.0
  0
ARC
  5
1040
330
1F
100
AcDbEntity
  8
SANINDUSA
100
AcDbCircle
 10
167.8644530955826
 20
169.7080768490352
 30
0.0
 40
0.0199999999999999
100
AcDbArc
 50
91.61880399183942
 51
162.7808062021787
  0
ARC
  5
1041
330
1F
100
AcDbEntity
  8
SANINDUSA
100
AcDbCircle
 10
167.7990052042623
 20
170.4156278847473
 30
0.0
 40
0.6805899185184733
100
AcDbArc
 50
268.5390989003858
 51
270.579999955656
  0
LWPOLYLINE
  5
1042
330
1F
100
AcDbEntity
  8
SANINDUSA
100
AcDbPolyline
 90
        3
 70
   128
 43
0.0
 10
167.8171554599978
 20
169.7350716967214
 10
167.8116165032093
 20
169.7350848876796
 10
167.8058946363315
 20
169.7350728370732
  0
ARC
  5
1043
330
1F
100
AcDbEntity
  8
SANINDUSA
100
AcDbCircle
 10
167.8240601758373
 20
170.4213360457612
 30
0.0
 40
0.6862990833913126
100
AcDbArc
 50
269.4235490616466
 51
271.4275431760029
  0
LWPOLYLINE
  5
1044
330
1F
100
AcDbEntity
  8
SANINDUSA
100
AcDbPolyline
 90
        5
 70
   128
 43
0.0
 10
167.8446975499649
 20
169.7353686257023
 10
167.8446274607848
 20
169.7353662777807
 10
167.8438018383611
 20
169.7353386155863
 10
167.8427006294888
 20
169.7353017066707
 10
167.841157773957
 20
169.7352499695271
  0
LINE
  5
1045
330
1F
100
AcDbEntity
  8
SANINDUSA
100
AcDbLine
 10
167.8366850585671
 20
169.7286453471256
 30
0.0
 11
167.8446975499649
 21
169.7353686257023
 31
0.0
  0
LINE
  5
1046
330
1F
100
AcDbEntity
  8
SANINDUSA
100
AcDbLine
 10
167.786112934664
 20
169.7286453471256
 30
0.0
 11
167.8366850585671
 21
169.7286453471256
 31
0.0
  0
LINE
  5
1047
330
1F
100
AcDbEntity
  8
SANINDUSA
100
AcDbLine
 10
167.7780870048335
 20
169.7353799018861
 30
0.0
 11
167.786112934664
 21
169.7286453471256
 31
0.0
  0
LWPOLYLINE
  5
1048
330
1F
100
AcDbEntity
  8
SANINDUSA
100
AcDbPolyline
 90
        4
 70
   128
 43
0.0
 10
167.7816537197607
 20
169.7352591882491
 10
167.7797084519635
 20
169.7353250450222
 10
167.778489085891
 20
169.7353663017871
 10
167.7780870048335
 20
169.7353799018861
  0
LINE
  5
104A
330
1F
100
AcDbEntity
  8
SANINDUSA
100
AcDbLine
 10
167.8466443423147
 20
169.7375855340715
 30
0.0
 11
167.8508429290535
 21
169.7377041902467
 31
0.0
  0
ARC
  5
104B
330
1F
100
AcDbEntity
  8
SANINDUSA
100
AcDbCircle
 10
167.8511254260618
 20
169.7277081812711
 30
0.0
 40
0.0100000000000002
100
AcDbArc
 50
91.61880399183942
 51
129.9999999999766
  0
ARC
  5
104C
330
1F
100
AcDbEntity
  8
SANINDUSA
100
AcDbCircle
 10
167.7868989966155
 20
169.7135894660668
 30
0.0
 40
0.0009999999999999
100
AcDbArc
 50
270.0
 51
0.0
  0
LINE
  5
104D
330
1F
100
AcDbEntity
  8
SANINDUSA
100
AcDbLine
 10
167.7878989966155
 20
169.7135894660668
 30
0.0
 11
167.8348989966155
 21
169.7135894660668
 31
0.0
  0
ARC
  5
104E
330
1F
100
AcDbEntity
  8
SANINDUSA
100
AcDbCircle
 10
167.8358989966155
 20
169.7135894660668
 30
0.0
 40
0.0010000000000002
100
AcDbArc
 50
180.0
 51
270.0
  0
LINE
  5
104F
330
1F
100
AcDbEntity
  8
SANINDUSA
100
AcDbLine
 10
167.8358989966155
 20
169.7125894660668
 30
0.0
 11
167.7868989966155
 21
169.7125894660668
 31
0.0
  0
ARC
  5
1056
330
1F
100
AcDbEntity
  8
SANINDUSA
100
AcDbCircle
 10
167.6212451798614
 20
169.8655894660668
 30
0.0
 40
0.005
100
AcDbArc
 50
90.0
 51
178.2100000000717
  0
LINE
  5
1057
330
1F
100
AcDbEntity
  8
SANINDUSA
100
AcDbLine
 10
167.641654173782
 20
169.8705894660668
 30
0.0
 11
167.6212451798614
 21
169.8705894660668
 31
0.0
  0
ARC
  5
1058
330
1F
100
AcDbEntity
  8
SANINDUSA
100
AcDbCircle
 10
167.641654173782
 20
169.8655894660668
 30
0.0
 40
0.005
100
AcDbArc
 50
3.000000000038289
 51
90.0
  0
LINE
  5
1059
330
1F
100
AcDbEntity
  8
SANINDUSA
100
AcDbLine
 10
167.6527023695277
 20
169.750313945935
 30
0.0
 11
167.6466473214557
 21
169.865851145848
 31
0.0
  0
ARC
  5
105A
330
1F
100
AcDbEntity
  8
SANINDUSA
100
AcDbCircle
 10
167.6626886648753
 20
169.7508373054974
 30
0.0
 40
0.01
100
AcDbArc
 50
183.0000000000383
 51
268.3653856173432
  0
LINE
  5
105B
330
1F
100
AcDbEntity
  8
SANINDUSA
100
AcDbLine
 10
167.7719443840666
 20
169.7377153880968
 30
0.0
 11
167.6624034095453
 21
169.7408413748555
 31
0.0
  0
ARC
  5
105C
330
1F
100
AcDbEntity
  8
SANINDUSA
100
AcDbCircle
 10
167.7716591287367
 20
169.7277194574549
 30
0.0
 40
0.0100000000000002
100
AcDbArc
 50
50.00000000002334
 51
88.365385617506
  0
ARC
  5
105D
330
1F
100
AcDbEntity
  8
SANINDUSA
100
AcDbCircle
 10
167.7828989966155
 20
169.72481512491
 30
0.0
 40
0.005
100
AcDbArc
 50
0.0
 51
50.00000000002334
  0
LINE
  5
105E
330
1F
100
AcDbEntity
  8
SANINDUSA
100
AcDbLine
 10
167.7878989966155
 20
169.72481512491
 30
0.0
 11
167.7878989966155
 21
169.7135894660668
 31
0.0
  0
ARC
  5
105F
330
1F
100
AcDbEntity
  8
SANINDUSA
100
AcDbCircle
 10
167.7583415422469
 20
169.7080913613324
 30
0.0
 40
0.0200000000000001
100
AcDbArc
 50
17.17962937785141
 51
88.36538561734323
  0
LINE
  5
1060
330
1F
100
AcDbEntity
  8
SANINDUSA
100
AcDbLine
 10
167.7589120529067
 20
169.7280832226161
 30
0.0
 11
167.6528125809101
 21
169.7311109987156
 31
0.0
  0
ARC
  5
1061
330
1F
100
AcDbEntity
  8
SANINDUSA
100
AcDbCircle
 10
167.6525273255802
 20
169.7211150680738
 30
0.0
 40
0.0100000000000001
100
AcDbArc
 50
88.36538561734323
 51
169.9999999999557
  0
LINE
  5
1062
330
1F
100
AcDbEntity
  8
SANINDUSA
100
AcDbLine
 10
167.6416901629865
 20
169.7172421697115
 30
0.0
 11
167.6426792480501
 21
169.7228515498504
 31
0.0
  0
ARC
  5
1063
330
1F
100
AcDbEntity
  8
SANINDUSA
100
AcDbCircle
 10
167.6397205474805
 20
169.7175894660668
 30
0.0
 40
0.0019999999999999
100
AcDbArc
 50
270.0
 51
349.9999999999557
  0
LINE
  5
1064
330
1F
100
AcDbEntity
  8
SANINDUSA
100
AcDbLine
 10
167.6239634630175
 20
169.7155894660668
 30
0.0
 11
167.6397205474805
 21
169.7155894660668
 31
0.0
  0
ARC
  5
1065
330
1F
100
AcDbEntity
  8
SANINDUSA
100
AcDbCircle
 10
167.6239634630175
 20
169.7135894660668
 30
0.0
 40
0.0020000000000002
100
AcDbArc
 50
90.0
 51
169.9999999999557
  0
LINE
  5
1066
330
1F
100
AcDbEntity
  8
SANINDUSA
100
AcDbLine
 10
167.7793599778419
 20
169.7125894660668
 30
0.0
 11
167.7868989966155
 21
169.7125894660668
 31
0.0
  0
LINE
  5
1067
330
1F
100
AcDbEntity
  8
SANINDUSA
100
AcDbLine
 10
167.6162476197246
 20
169.8657456476258
 30
0.0
 11
167.6114632022333
 21
169.7126519386904
 31
0.0
  0
LINE
  5
1068
330
1F
100
AcDbEntity
  8
SANINDUSA
100
AcDbLine
 10
167.6197254295893
 20
169.7105894660668
 30
0.0
 11
167.613462226288
 21
169.7105894660668
 31
0.0
  0
ARC
  5
1069
330
1F
100
AcDbEntity
  8
SANINDUSA
100
AcDbCircle
 10
167.613462226288
 20
169.7125894660668
 30
0.0
 40
0.0020000000000001
100
AcDbArc
 50
178.2100000000717
 51
270.0
  0
ARC
  5
106A
330
1F
100
AcDbEntity
  8
SANINDUSA
100
AcDbCircle
 10
167.6197254295893
 20
169.7125894660668
 30
0.0
 40
0.002
100
AcDbArc
 50
270.0
 51
349.9999999999557
  0
ARC
  5
106B
330
1F
100
AcDbEntity
  8
SANINDUSA
100
AcDbCircle
 10
167.7793599778419
 20
169.7145894660668
 30
0.0
 40
0.0020000000000002
100
AcDbArc
 50
197.1796293778514
 51
270.0
  0
LINE
  5
106C
330
1F
100
AcDbEntity
  8
SANINDUSA
100
AcDbLine
 10
167.6219938475115
 20
169.7139367624221
 30
0.0
 11
167.6216950450953
 21
169.7122421697114
 31
0.0
  0
LINE
  5
1075
330
1F
100
AcDbEntity
  8
SANINDUSA
100
AcDbLine
 10
167.9830774457505
 20
169.7155894660668
 30
0.0
 11
168.0005127294758
 21
169.7155894660668
 31
0.0
  0
ARC
  5
1076
330
1F
100
AcDbEntity
  8
SANINDUSA
100
AcDbCircle
 10
167.9830774457505
 20
169.7175894660668
 30
0.0
 40
0.002
100
AcDbArc
 50
190.0000000000442
 51
270.0
  0
LINE
  5
1077
330
1F
100
AcDbEntity
  8
SANINDUSA
100
AcDbLine
 10
167.9801264156468
 20
169.7228080484769
 30
0.0
 11
167.9811078302445
 21
169.7172421697115
 31
0.0
  0
ARC
  5
1078
330
1F
100
AcDbEntity
  8
SANINDUSA
100
AcDbCircle
 10
167.9702783381167
 20
169.7210715667002
 30
0.0
 40
0.0100000000000002
100
AcDbArc
 50
10.00000000004425
 51
91.61880399183942
  0
LINE
  5
1079
330
1F
100
AcDbEntity
  8
SANINDUSA
100
AcDbLine
 10
167.9699958411084
 20
169.7310675756758
 30
0.0
 11
167.8638881015661
 21
169.7280688669864
 31
0.0
  0
LINE
  5
107A
330
1F
100
AcDbEntity
  8
SANINDUSA
100
AcDbLine
 10
167.8348989966155
 20
169.7135894660668
 30
0.0
 11
167.8348989966155
 21
169.72481512491
 31
0.0
  0
ARC
  5
107B
330
1F
100
AcDbEntity
  8
SANINDUSA
100
AcDbCircle
 10
167.8398989966155
 20
169.72481512491
 30
0.0
 40
0.0050000000000002
100
AcDbArc
 50
129.9999999999766
 51
180.0
  0
LINE
  5
107C
330
1F
100
AcDbEntity
  8
SANINDUSA
100
AcDbLine
 10
167.960389665736
 20
169.740800088365
 30
0.0
 11
167.8508429290535
 21
169.7377041902467
 31
0.0
  0
ARC
  5
107D
330
1F
100
AcDbEntity
  8
SANINDUSA
100
AcDbCircle
 10
167.9601071687278
 20
169.7507960973406
 30
0.0
 40
0.0100000000000002
100
AcDbArc
 50
271.6188039918394
 51
356.9999999999617
  0
LINE
  5
107E
330
1F
100
AcDbEntity
  8
SANINDUSA
100
AcDbLine
 10
167.9761506717753
 20
169.865851145848
 30
0.0
 11
167.9700934640753
 21
169.7502727377782
 31
0.0
  0
ARC
  5
107F
330
1F
100
AcDbEntity
  8
SANINDUSA
100
AcDbCircle
 10
167.9811438194491
 20
169.8655894660668
 30
0.0
 40
0.005
100
AcDbArc
 50
90.0
 51
176.9999999999617
  0
LINE
  5
1080
330
1F
100
AcDbEntity
  8
SANINDUSA
100
AcDbLine
 10
168.0015528133696
 20
169.8705894660668
 30
0.0
 11
167.9811438194491
 21
169.8705894660668
 31
0.0
  0
ARC
  5
1081
330
1F
100
AcDbEntity
  8
SANINDUSA
100
AcDbCircle
 10
168.0015528133696
 20
169.8655894660668
 30
0.0
 40
0.005
100
AcDbArc
 50
1.789999999928281
 51
90.0
  0
ARC
  5
1082
330
1F
100
AcDbEntity
  8
SANINDUSA
100
AcDbCircle
 10
168.009335766943
 20
169.7125894660668
 30
0.0
 40
0.0020000000000001
100
AcDbArc
 50
270.0
 51
1.789999999928281
  0
ARC
  5
1083
330
1F
100
AcDbEntity
  8
SANINDUSA
100
AcDbCircle
 10
168.0030725636417
 20
169.7125894660668
 30
0.0
 40
0.0019999999999999
100
AcDbArc
 50
190.0000000000442
 51
270.0
  0
LINE
  5
1084
330
1F
100
AcDbEntity
  8
SANINDUSA
100
AcDbLine
 10
168.0011029481357
 20
169.7122421697114
 30
0.0
 11
168.0005127294758
 21
169.7155894660668
 31
0.0
  0
LINE
  5
1085
330
1F
100
AcDbEntity
  8
SANINDUSA
100
AcDbLine
 10
168.0113347909977
 20
169.7126519386904
 30
0.0
 11
168.0065503735064
 21
169.8657456476258
 31
0.0
  0
LINE
  5
1086
330
1F
100
AcDbEntity
  8
SANINDUSA
100
AcDbLine
 10
167.8358989966155
 20
169.7125894660668
 30
0.0
 11
167.8434391521308
 21
169.7125894660668
 31
0.0
  0
LINE
  5
1087
330
1F
100
AcDbEntity
  8
SANINDUSA
100
AcDbLine
 10
168.009335766943
 20
169.7105894660668
 30
0.0
 11
168.0030725636417
 21
169.7105894660668
 31
0.0
  0
ARC
  5
108A
330
1F
100
AcDbEntity
  8
SANINDUSA
100
AcDbCircle
 10
167.8434391521308
 20
169.7145894660668
 30
0.0
 40
0.0020000000000002
100
AcDbArc
 50
270.0
 51
342.7808062021787
  0
LINE
  5
108B
330
1F
100
AcDbEntity
  8
SANINDUSA
100
AcDbLine
 10
167.8348989966155
 20
169.72481512491
 30
0.0
 11
167.7878989966155
 21
169.72481512491
 31
0.0
  0
LINE
  5
108C
330
1F
100
AcDbEntity
  8
SANINDUSA
100
AcDbLine
 10
167.7719443840666
 20
169.7377153880968
 30
0.0
 11
167.7761744369914
 21
169.7375946744598
 31
0.0
  0
ARC
  5
108F
330
1F
100
AcDbEntity
  8
SANINDUSA
100
AcDbCircle
 10
167.8263952349693
 20
170.7121952662768
 30
0.0
 40
0.9748200636310341
100
AcDbArc
 50
269.5229337887202
 51
271.1902420586509
  0
ARC
  5
1090
330
1F
100
AcDbEntity
  8
SANINDUSA
100
AcDbCircle
 10
167.7966726567899
 20
170.6960633138297
 30
0.0
 40
0.9586878061550672
100
AcDbArc
 50
268.7748347470998
 51
270.4869730958938
  0
ARC
  5
1098
330
1F
100
AcDbEntity
  8
SANINDUSA
100
AcDbCircle
 10
167.811397983318
 20
167.9473413855642
 30
0.0
 40
1.790080832072885
100
AcDbArc
 50
89.77976868602
 51
90.21052142168095
  0
LWPOLYLINE
  5
10A0
330
1F
100
AcDbEntity
  8
SANINDUSA
100
AcDbPolyline
 90
        9
 70
   128
 43
0.0
 10
167.9751759549929
 20
169.7229464599288
 10
167.9749018227857
 20
169.7246232190376
 10
167.9744871942113
 20
169.7261920521368
 10
167.973944668816
 20
169.7276052862337
 10
167.9732907326167
 20
169.7288199766078
 10
167.9725452571317
 20
169.7297992117958
 10
167.971730895534
 20
169.7305132352404
 10
167.9708723942766
 20
169.7309403495191
 10
167.9699958411084
 20
169.7310675756758
  0
LWPOLYLINE
  5
10A8
330
1F
100
AcDbEntity
  8
SANINDUSA
100
AcDbPolyline
 90
        3
 70
   128
 43
0.0
 10
167.9752023768817
 20
169.7228080484769
 10
167.9751896535531
 20
169.7228773472857
 10
167.9751759549929
 20
169.7229464599288
  0
LINE
  5
10AB
330
1F
100
AcDbEntity
  8
SANINDUSA
100
AcDbLine
 10
167.9761837914794
 20
169.7172421697115
 30
0.0
 11
167.9752023768817
 21
169.7228080484769
 31
0.0
  0
LWPOLYLINE
  5
10AC
330
1F
100
AcDbEntity
  8
SANINDUSA
100
AcDbPolyline
 90
        4
 70
   128
 43
0.0
 10
167.9807181358449
 20
169.7155894660668
 10
167.9789953931005
 20
169.7158723620792
 10
167.976196066084
 20
169.7172346840634
 10
167.9761837914794
 20
169.7172421697115
  0
LINE
  5
10AD
330
1F
100
AcDbEntity
  8
SANINDUSA
100
AcDbLine
 10
167.9830774457505
 20
169.7155894660668
 30
0.0
 11
167.9807181358449
 21
169.7155894660668
 31
0.0
  0
LINE
  5
10B5
330
1F
100
AcDbEntity
  8
SANINDUSA
100
AcDbLine
 10
168.0030725636417
 20
169.7105894660668
 30
0.0
 11
167.9961789093706
 21
169.7105894660668
 31
0.0
  0
LINE
  5
10B7
330
1F
100
AcDbEntity
  8
SANINDUSA
100
AcDbLine
 10
167.6266190838604
 20
169.7105894660668
 30
0.0
 11
167.6197254295893
 21
169.7105894660668
 31
0.0
  0
LINE
  5
10C0
330
1F
100
AcDbEntity
  8
SANINDUSA
100
AcDbLine
 10
167.9961789093706
 20
169.7105894660668
 30
0.0
 11
167.6266190838604
 21
169.7105894660668
 31
0.0
  0
LWPOLYLINE
  5
10DF
330
1F
100
AcDbEntity
  8
SANINDUSA
100
AcDbPolyline
 90
        9
 70
   128
 43
0.0
 10
167.9633472849273
 20
169.8026214163595
 10
167.9652339558691
 20
169.8028009970923
 10
167.9670528617438
 20
169.8033332978046
 10
167.9687386714559
 20
169.8041991994266
 10
167.9702308344316
 20
169.8053676006781
 10
167.9714757554614
 20
169.806796535158
 10
167.9724287197221
 20
169.8084346786852
 10
167.9730554988353
 20
169.8102231927502
 10
167.9733335802748
 20
169.8120978378647
  0
LWPOLYLINE
  5
10E1
330
1F
100
AcDbEntity
  8
SANINDUSA
100
AcDbPolyline
 90
        9
 70
   128
 43
0.0
 10
167.6594507083038
 20
169.8026214163595
 10
167.6575640373619
 20
169.8028009970923
 10
167.6557451314873
 20
169.8033332978046
 10
167.6540593217751
 20
169.8041991994266
 10
167.6525671587994
 20
169.8053676006781
 10
167.6513222377696
 20
169.806796535158
 10
167.6503692735089
 20
169.8084346786852
 10
167.6497424943958
 20
169.8102231927502
 10
167.6494644129562
 20
169.8120978378647
  0
LINE
  5
10E7
330
1F
100
AcDbEntity
  8
SANINDUSA
100
AcDbLine
 10
167.6594507083038
 20
169.8026214163595
 30
0.0
 11
167.9633472849273
 21
169.8026214163595
 31
0.0
  0
LINE
  5
110F
330
1F
100
AcDbEntity
  8
SANINDUSA
100
AcDbLine
 10
167.641654173782
 20
169.8705894660668
 30
0.0
 11
167.6566336168033
 21
169.8705894660668
 31
0.0
  0
LINE
  5
1111
330
1F
100
AcDbEntity
  8
SANINDUSA
100
AcDbLine
 10
167.9661643764278
 20
169.8705894660668
 30
0.0
 11
167.9811438194491
 21
169.8705894660668
 31
0.0
  0
LINE
  5
1113
330
1F
100
AcDbEntity
  8
SANINDUSA
100
AcDbLine
 10
167.6566336168033
 20
169.8705894660668
 30
0.0
 11
167.9661643764278
 21
169.8705894660668
 31
0.0
  0
LINE
  5
1119
330
1F
100
AcDbEntity
  8
SANINDUSA
100
AcDbLine
 10
167.6270303243783
 20
169.8586207023786
 30
0.0
 11
167.6229363689459
 21
169.7276206752083
 31
0.0
  0
LINE
  5
111A
330
1F
100
AcDbEntity
  8
SANINDUSA
100
AcDbLine
 10
167.6350114218149
 20
169.8595894660668
 30
0.0
 11
167.6280298364056
 21
169.8595894660668
 31
0.0
  0
LINE
  5
111B
330
1F
100
AcDbEntity
  8
SANINDUSA
100
AcDbLine
 10
167.6417174446454
 20
169.7497382504163
 30
0.0
 11
167.6360100513497
 21
169.8586418020231
 31
0.0
  0
LINE
  5
111C
330
1F
100
AcDbEntity
  8
SANINDUSA
100
AcDbLine
 10
167.6239634630175
 20
169.7265894660668
 30
0.0
 11
167.6315015754003
 21
169.7265894660668
 31
0.0
  0
ARC
  5
111D
330
1F
100
AcDbEntity
  8
SANINDUSA
100
AcDbCircle
 10
167.6239634630175
 20
169.7135894660668
 30
0.0
 40
0.0130000000000002
100
AcDbArc
 50
90.0
 51
90.1128811249346
  0
ARC
  5
111E
330
1F
100
AcDbEntity
  8
SANINDUSA
100
AcDbCircle
 10
167.6525273255802
 20
169.7211150680738
 30
0.0
 40
0.0210000000000001
100
AcDbArc
 50
115.5732387758473
 51
162.8849834124827
  0
ARC
  5
111F
330
1F
100
AcDbEntity
  8
SANINDUSA
100
AcDbCircle
 10
167.6626886648753
 20
169.7508373054974
 30
0.0
 40
0.021
100
AcDbArc
 50
183.0000000000383
 51
206.6780393396421
  0
ARC
  5
1120
330
1F
100
AcDbEntity
  8
SANINDUSA
100
AcDbCircle
 10
167.9702783381167
 20
169.7210715667002
 30
0.0
 40
0.0210000000000002
100
AcDbArc
 50
17.23359696276018
 51
64.45232345461883
  0
ARC
  5
1121
330
1F
100
AcDbEntity
  8
SANINDUSA
100
AcDbCircle
 10
167.9601071687278
 20
169.7507960973406
 30
0.0
 40
0.0210000000000002
100
AcDbArc
 50
333.3276198025949
 51
356.9999999999617
  0
LINE
  5
1122
330
1F
100
AcDbEntity
  8
SANINDUSA
100
AcDbLine
 10
167.9912906437457
 20
169.7265894660668
 30
0.0
 11
167.9988621114086
 21
169.7265894660668
 31
0.0
  0
LINE
  5
1123
330
1F
100
AcDbEntity
  8
SANINDUSA
100
AcDbLine
 10
167.999861623436
 20
169.7276207023786
 30
0.0
 11
167.9957676688528
 21
169.8586207023786
 31
0.0
  0
LINE
  5
1124
330
1F
100
AcDbEntity
  8
SANINDUSA
100
AcDbLine
 10
167.9867879418813
 20
169.8586418020231
 30
0.0
 11
167.9810783889576
 21
169.7496970422595
 31
0.0
  0
LINE
  5
1125
330
1F
100
AcDbEntity
  8
SANINDUSA
100
AcDbLine
 10
167.9947681568254
 20
169.8595894660668
 30
0.0
 11
167.9877865714161
 21
169.8595894660668
 31
0.0
  0
ARC
  5
1127
330
1F
100
AcDbEntity
  8
SANINDUSA
100
AcDbCircle
 10
167.9947681568254
 20
169.8585894660668
 30
0.0
 40
0.001
100
AcDbArc
 50
1.789999999928281
 51
90.0
  0
ARC
  5
1128
330
1F
100
AcDbEntity
  8
SANINDUSA
100
AcDbCircle
 10
167.9877865714161
 20
169.8585894660668
 30
0.0
 40
0.001
100
AcDbArc
 50
90.0
 51
176.9999999999617
  0
ARC
  5
1129
330
1F
100
AcDbEntity
  8
SANINDUSA
100
AcDbCircle
 10
167.9988621114086
 20
169.7275894660668
 30
0.0
 40
0.001
100
AcDbArc
 50
270.0
 51
1.789999999928281
  0
ARC
  5
112A
330
1F
100
AcDbEntity
  8
SANINDUSA
100
AcDbCircle
 10
167.9912906437457
 20
169.7275894660668
 30
0.0
 40
0.001
100
AcDbArc
 50
197.2335969627602
 51
270.0
  0
ARC
  5
112C
330
1F
100
AcDbEntity
  8
SANINDUSA
100
AcDbCircle
 10
167.9797661021243
 20
169.7409205549398
 30
0.0
 40
0.001
100
AcDbArc
 50
153.3276198025948
 51
244.4523234546188
  0
ARC
  5
112D
330
1F
100
AcDbEntity
  8
SANINDUSA
100
AcDbCircle
 10
167.6430307069885
 20
169.7409598214188
 30
0.0
 40
0.001
100
AcDbArc
 50
295.5732387758473
 51
26.67803933964207
  0
ARC
  5
112E
330
1F
100
AcDbEntity
  8
SANINDUSA
100
AcDbCircle
 10
167.6315015754003
 20
169.7275894660668
 30
0.0
 40
0.001
100
AcDbArc
 50
270.0
 51
342.8849834124827
  0
ARC
  5
112F
330
1F
100
AcDbEntity
  8
SANINDUSA
100
AcDbCircle
 10
167.6239358809733
 20
169.7275894388964
 30
0.0
 40
0.001
100
AcDbArc
 50
178.2100000000717
 51
270.1128811249347
  0
ARC
  5
1130
330
1F
100
AcDbEntity
  8
SANINDUSA
100
AcDbCircle
 10
167.6280298364056
 20
169.8585894660668
 30
0.0
 40
0.001
100
AcDbArc
 50
90.0
 51
178.2100000000717
  0
ARC
  5
1131
330
1F
100
AcDbEntity
  8
SANINDUSA
100
AcDbCircle
 10
167.6350114218149
 20
169.8585894660668
 30
0.0
 40
0.001
100
AcDbArc
 50
3.000000000038289
 51
90.0
  0
ENDSEC
  0
SECTION
  2
OBJECTS
  0
DICTIONARY
  5
C
330
0
100
AcDbDictionary
281
     1
  3
ACAD_COLOR
350
BA9
  3
ACAD_GROUP
350
D
  3
ACAD_LAYOUT
350
1A
  3
ACAD_MATERIAL
350
BA8
  3
ACAD_MLINESTYLE
350
17
  3
ACAD_PLOTSETTINGS
350
19
  3
ACAD_PLOTSTYLENAME
350
E
  3
ACAD_TABLESTYLE
350
BAA
  3
ACDBHEADERROUNDTRIPXREC
350
115A
  3
AcDbVariableDictionary
350
3D
  3
ASE_INDEX_DICTIONARY
350
F38
  0
DICTIONARY
  5
1117
330
1F
100
AcDbDictionary
280
     1
281
     1
  3
ACAD_SORTENTS
360
1118
  0
DICTIONARY
  5
BA9
102
{ACAD_REACTORS
330
C
102
}
330
C
100
AcDbDictionary
281
     1
  0
DICTIONARY
  5
D
102
{ACAD_REACTORS
330
C
102
}
330
C
100
AcDbDictionary
281
     1
  0
DICTIONARY
  5
1A
102
{ACAD_REACTORS
330
C
102
}
330
C
100
AcDbDictionary
281
     1
  3
Layout1
350
1E
  3
Layout2
350
26
  3
Model
350
22
  0
DICTIONARY
  5
BA8
102
{ACAD_REACTORS
330
C
102
}
330
C
100
AcDbDictionary
281
     1
  0
DICTIONARY
  5
17
102
{ACAD_REACTORS
330
C
102
}
330
C
100
AcDbDictionary
281
     1
  3
Standard
350
18
  0
DICTIONARY
  5
19
102
{ACAD_REACTORS
330
C
102
}
330
C
100
AcDbDictionary
281
     1
  0
ACDBDICTIONARYWDFLT
  5
E
102
{ACAD_REACTORS
330
C
102
}
330
C
100
AcDbDictionary
281
     1
  3
Normal
350
F
100
AcDbDictionaryWithDefault
340
F
  0
DICTIONARY
  5
BAA
102
{ACAD_REACTORS
330
C
102
}
330
C
100
AcDbDictionary
281
     1
  3
Standard
350
BAB
  0
DICTIONARY
  5
115A
102
{ACAD_REACTORS
330
C
102
}
330
C
100
AcDbDictionary
281
     1
  0
DICTIONARY
  5
3D
102
{ACAD_REACTORS
330
C
102
}
330
C
100
AcDbDictionary
281
     1
  3
CTABLESTYLE
350
F3B
  3
DIMASSOC
350
3F
  3
HIDETEXT
350
3E
  3
PROJECTNAME
350
1152
  0
DICTIONARY
  5
F38
102
{ACAD_REACTORS
330
C
102
}
330
C
100
AcDbDictionary
281
     1
  3
ASEBlockHierarchyIndexRecord
350
F39
1001
DCO15
1040
1534223018.0
  0
SORTENTSTABLE
  5
1118
102
{ACAD_REACTORS
330
1117
102
}
330
1117
100
AcDbSortentsTable
330
1F
331
1048
  5
1048
331
E49
  5
E49
331
DE2
  5
DE2
331
DEA
  5
DEA
331
108F
  5
10AA
331
E59
  5
E59
331
1058
  5
105A
331
DFA
  5
DFA
331
1060
  5
1065
331
E02
  5
E02
331
1068
  5
107D
331
DC3
  5
DC3
331
D8C
  5
D8C
331
DCB
  5
DCB
331
111E
  5
1067
331
1078
  5
1086
331
D94
  5
D94
331
DD3
  5
DD3
331
10B7
  5
10DD
331
112E
  5
1069
331
DDB
  5
DDB
331
1041
  5
1041
331
1080
  5
109B
331
DE3
  5
DE3
331
DA4
  5
DA4
331
E4A
  5
E4A
331
1090
  5
10AB
331
10DF
  5
1113
331
DB4
  5
DB4
331
DEB
  5
DEB
331
1059
  5
105B
331
1098
  5
10B0
331
10E7
  5
111B
331
DBC
  5
DBC
331
E5A
  5
E5A
331
1061
  5
1066
331
E03
  5
E03
331
110F
  5
112D
331
E23
  5
E23
331
1069
  5
107E
331
10A0
  5
10B8
331
D85
  5
D85
331
DC4
  5
DC4
331
111F
  5
105F
331
10A8
  5
10C0
331
DCC
  5
DCC
331
E2B
  5
E2B
331
1079
  5
108C
331
DD4
  5
DD4
331
1127
  5
109D
331
D95
  5
D95
331
112F
  5
1079
331
1081
  5
109E
331
10C0
  5
1102
331
E43
  5
E43
331
DDC
  5
DDC
331
1042
  5
1042
331
104A
  5
104A
331
E4B
  5
E4B
331
DE4
  5
DE4
331
DEC
  5
DEC
331
105A
  5
105E
331
DFC
  5
DFC
331
1062
  5
106B
331
D7E
  5
D7E
331
E04
  5
E04
331
106A
  5
107F
331
DC5
  5
DC5
331
E63
  5
E63
331
1120
  5
1087
331
DCD
  5
DCD
331
1128
  5
1099
331
107A
  5
108F
331
D96
  5
D96
331
DD5
  5
DD5
331
1130
  5
1059
331
1043
  5
1043
331
DDD
  5
DDD
331
D9E
  5
D9E
331
E44
  5
E44
331
1082
  5
109F
331
108A
  5
10A7
331
DE5
  5
DE5
331
104B
  5
104B
331
10E1
  5
1119
331
DB6
  5
DB6
331
DED
  5
DED
331
105B
  5
1060
331
D77
  5
D77
331
DBE
  5
DBE
331
E5C
  5
E5C
331
1063
  5
106C
331
E05
  5
E05
331
1111
  5
112F
331
106B
  5
1080
331
D87
  5
D87
331
DC6
  5
DC6
331
1119
  5
107C
331
DCE
  5
DCE
331
1121
  5
1095
331
107B
  5
1090
331
DD6
  5
DD6
331
1129
  5
10A4
331
D97
  5
D97
331
1131
  5
105D
331
1083
  5
10A0
331
E45
  5
E45
331
DDE
  5
DDE
331
1044
  5
1044
331
DE6
  5
DE6
331
104C
  5
104C
331
108B
  5
10A8
331
E55
  5
E55
331
DEE
  5
DEE
331
105C
  5
1061
331
D78
  5
D78
331
DFE
  5
DFE
331
1064
  5
1075
331
D80
  5
D80
331
106C
  5
1081
331
E65
  5
E65
331
111A
  5
1058
331
D88
  5
D88
331
DC7
  5
DC7
331
E26
  5
E26
331
1122
  5
1083
331
E2E
  5
E2E
331
DCF
  5
DCF
331
10AB
  5
10D1
331
112A
  5
108B
331
107C
  5
1093
331
DD7
  5
DD7
331
1045
  5
1045
331
DDF
  5
DDF
331
E46
  5
E46
331
1084
  5
10A1
331
DA0
  5
DA0
331
108C
  5
10A9
331
DB0
  5
DB0
331
DE7
  5
DE7
331
104D
  5
104D
331
E56
  5
E56
331
DB8
  5
DB8
331
DEF
  5
DEF
331
105D
  5
1062
331
DFF
  5
DFF
331
1065
  5
1077
331
1113
  5
1131
331
DC0
  5
DC0
331
111B
  5
105C
331
DC8
  5
DC8
331
10AC
  5
10D2
331
1123
  5
10A3
331
DD0
  5
DD0
331
E2F
  5
E2F
331
1075
  5
1082
331
107D
  5
1094
331
DD8
  5
DD8
331
1046
  5
1046
331
1085
  5
10A2
331
E47
  5
E47
331
DE0
  5
DE0
331
DE8
  5
DE8
331
104E
  5
104E
331
1056
  5
1056
331
E5F
  5
E5F
331
105E
  5
1063
331
E00
  5
E00
331
1066
  5
107A
331
D8A
  5
D8A
331
DC9
  5
DC9
331
E67
  5
E67
331
111C
  5
1076
331
1124
  5
1098
331
E30
  5
E30
331
1076
  5
1084
331
DD1
  5
DD1
331
10AD
  5
10D3
331
10B5
  5
10DB
331
112C
  5
108A
331
DD9
  5
DD9
331
D9A
  5
D9A
331
107E
  5
1096
331
1047
  5
1047
331
1086
  5
10A5
331
DE1
  5
DE1
331
E48
  5
E48
331
DB2
  5
DB2
331
DE9
  5
DE9
331
104F
  5
104F
331
1057
  5
1057
331
DBA
  5
DBA
331
105F
  5
1064
331
D7B
  5
D7B
331
E01
  5
E01
331
1067
  5
107B
331
DC2
  5
DC2
331
E68
  5
E68
331
111D
  5
1078
331
E29
  5
E29
331
DCA
  5
DCA
331
1125
  5
109C
331
DD2
  5
DD2
331
E31
  5
E31
331
1077
  5
1085
331
107F
  5
109A
331
D9B
  5
D9B
331
DDA
  5
DDA
331
1040
  5
1040
331
112D
  5
106A
331
1087
  5
10A6
  0
LAYOUT
  5
1E
102
{ACAD_XDICTIONARY
360
115B
102
}
102
{ACAD_REACTORS
330
1A
102
}
330
1A
100
AcDbPlotSettings
  1

  2
Ploter HP500
  4

  6

 40
0.0
 41
0.0
 42
0.0
 43
0.0
 44
0.0
 45
0.0
 46
0.0
 47
0.0
 48
0.0
 49
0.0
140
0.0
141
0.0
142
1.0
143
1.0
 70
   688
 72
     0
 73
     0
 74
     5
  7
monochrome.ctb
 75
    16
147
1.0
148
0.0
149
0.0
100
AcDbLayout
  1
Layout1
 70
     1
 71
     1
 10
0.0
 20
0.0
 11
420.0
 21
297.0
 12
0.0
 22
0.0
 32
0.0
 14
1.000000000000000E+20
 24
1.000000000000000E+20
 34
1.000000000000000E+20
 15
-1.000000000000000E+20
 25
-1.000000000000000E+20
 35
-1.000000000000000E+20
146
0.0
 13
0.0
 23
0.0
 33
0.0
 16
1.0
 26
0.0
 36
0.0
 17
0.0
 27
1.0
 37
0.0
 76
     0
330
1B
  0
LAYOUT
  5
26
102
{ACAD_XDICTIONARY
360
115F
102
}
102
{ACAD_REACTORS
330
1A
102
}
330
1A
100
AcDbPlotSettings
  1

  2
Ploter HP500
  4

  6

 40
0.0
 41
0.0
 42
0.0
 43
0.0
 44
0.0
 45
0.0
 46
0.0
 47
0.0
 48
0.0
 49
0.0
140
0.0
141
0.0
142
1.0
143
1.0
 70
   688
 72
     0
 73
     0
 74
     5
  7
monochrome.ctb
 75
    16
147
1.0
148
0.0
149
0.0
100
AcDbLayout
  1
Layout2
 70
     1
 71
     2
 10
0.0
 20
0.0
 11
12.0
 21
9.0
 12
0.0
 22
0.0
 32
0.0
 14
0.0
 24
0.0
 34
0.0
 15
0.0
 25
0.0
 35
0.0
146
0.0
 13
0.0
 23
0.0
 33
0.0
 16
1.0
 26
0.0
 36
0.0
 17
0.0
 27
1.0
 37
0.0
 76
     0
330
23
  0
LAYOUT
  5
22
102
{ACAD_XDICTIONARY
360
115D
102
}
102
{ACAD_REACTORS
330
1A
102
}
330
1A
100
AcDbPlotSettings
  1

  2
Ploter HP500
  4
User268
  6

 40
4.995333194732666
 41
16.97565841674804
 42
4.995330810546875
 43
16.97567749023437
 44
209.9733276367187
 45
296.9259948730469
 46
0.0
 47
0.0
 48
0.0
 49
0.0
140
0.0
141
0.0
142
1.0
143
1.0
 70
 11952
 72
     1
 73
     1
 74
     0
  7

 75
     0
147
1.0
148
-427.5957866592534
149
7.362384574453926
100
AcDbLayout
  1
Model
 70
     1
 71
     0
 10
0.0
 20
0.0
 11
12.0
 21
9.0
 12
0.0
 22
0.0
 32
0.0
 14
0.0
 24
0.0
 34
0.0
 15
0.0
 25
0.0
 35
0.0
146
0.0
 13
0.0
 23
0.0
 33
0.0
 16
1.0
 26
0.0
 36
0.0
 17
0.0
 27
1.0
 37
0.0
 76
     0
330
1F
  0
MLINESTYLE
  5
18
102
{ACAD_REACTORS
330
17
102
}
330
17
100
AcDbMlineStyle
  2
STANDARD
 70
     0
  3

 62
   256
 51
90.0
 52
90.0
 71
     2
 49
0.5
 62
   256
  6
BYLAYER
 49
-0.5
 62
   256
  6
BYLAYER
  0
ACDBPLACEHOLDER
  5
F
102
{ACAD_REACTORS
330
E
102
}
330
E
  0
TABLESTYLE
  5
BAB
102
{ACAD_REACTORS
330
BAA
102
}
330
BAA
100
AcDbTableStyle
  3
Standard
 70
     0
 71
     0
 40
1.5
 41
1.5
280
     0
281
     0
  7
Standard
140
4.5
170
     2
 62
     0
 63
     7
283
     0
274
    -2
284
     1
 64
     0
275
    -2
285
     1
 65
     0
276
    -2
286
     1
 66
     0
277
    -2
287
     1
 67
     0
278
    -2
288
     1
 68
     0
279
    -2
289
     1
 69
     0
  7
Standard
140
6.0
170
     5
 62
     0
 63
     7
283
     0
274
    -2
284
     1
 64
     0
275
    -2
285
     1
 65
     0
276
    -2
286
     1
 66
     0
277
    -2
287
     1
 67
     0
278
    -2
288
     1
 68
     0
279
    -2
289
     1
 69
     0
  7
Standard
140
4.5
170
     5
 62
     0
 63
     7
283
     0
274
    -2
284
     1
 64
     0
275
    -2
285
     1
 65
     0
276
    -2
286
     1
 66
     0
277
    -2
287
     1
 67
     0
278
    -2
288
     1
 68
     0
279
    -2
289
     1
 69
     0
  0
DICTIONARYVAR
  5
F3B
102
{ACAD_REACTORS
330
3D
102
}
330
3D
100
DictionaryVariables
280
     0
  1
STANDARD
  0
DICTIONARYVAR
  5
3F
102
{ACAD_REACTORS
330
3D
102
}
330
3D
100
DictionaryVariables
280
     0
  1
2
  0
DICTIONARYVAR
  5
3E
102
{ACAD_REACTORS
330
3D
102
}
330
3D
100
DictionaryVariables
280
     0
  1
1
  0
DICTIONARYVAR
  5
1152
102
{ACAD_REACTORS
330
3D
102
}
330
3D
100
DictionaryVariables
280
     0
  1

  0
XRECORD
  5
F39
102
{ACAD_REACTORS
330
F38
102
}
330
F38
100
AcDbXrecord
280
     1
  0
DICTIONARY
  5
115B
330
1E
100
AcDbDictionary
280
     1
281
     1
  3
ACAD_XREC_ROUNDTRIP
360
115C
  0
DICTIONARY
  5
115F
330
26
100
AcDbDictionary
280
     1
281
     1
  3
ACAD_XREC_ROUNDTRIP
360
1160
  0
DICTIONARY
  5
115D
330
22
100
AcDbDictionary
280
     1
281
     1
  3
ACAD_XREC_ROUNDTRIP
360
115E
  0
XRECORD
  5
115C
102
{ACAD_REACTORS
330
115B
102
}
330
115B
100
AcDbXrecord
280
     1
102
SHADEPLOT
 70
     0
102
SHADEPLOTRESLEVEL
 70
     2
102
SHADEPLOTCUSTOMDPI
 70
   300
  0
XRECORD
  5
1160
102
{ACAD_REACTORS
330
115F
102
}
330
115F
100
AcDbXrecord
280
     1
102
SHADEPLOT
 70
     0
102
SHADEPLOTRESLEVEL
 70
     2
102
SHADEPLOTCUSTOMDPI
 70
   300
  0
XRECORD
  5
115E
102
{ACAD_REACTORS
330
115D
102
}
330
115D
100
AcDbXrecord
280
     1
102
SHADEPLOT
 70
     0
102
SHADEPLOTRESLEVEL
 70
     2
102
SHADEPLOTCUSTOMDPI
 70
   300
  0
ENDSEC
  0
EOF
